Korn - Shoots And Ladders Chords & Tabs

 

Shoots And Ladders Chords & Tabs

Korn Chords & Tabs

Version: 1 Type: Tab 0 ratings
1 star 2 stars 3 stars 4 stars 5 stars
comments

Shoots And Ladders Tab

   
Song: Shoots and ladders
Artist:Korn
Date tabbed: 6-16-01
Tuning: all strings tuned down a whole step.  D, a, F, C, G, D, 

This is strate out of the Life is Peachy Tab book
intro
----------------------------------------------------------------------
----------------------------------------------------------------------
----------------------------------------------------------------------
3--3--3--3-33--------------------------------------------------------------
3--3--3--3-33--------------------------------------------------------------
1--1--1--1-11---------------------------------------------------------

4 or 5 times wit the this beat.

     Bend on the 2nd stroke and hold
-------------------------------
0----00------------------------
5----55------------------------
-------------------------------
-------------------------------
-------------------------------
Do this for 4 beats

Verse

Bend hard on the third note
------------
0--0---0----
5--5---5----
------------
------------
------------
[ Tab from: http://www.guitartabs.cc/tabs/k/korn/shoots_and_ladders_tab.html ]
Chorus
Guitar 1 Munky
-----------------------14-------14------14-14-------------------------
15-15-15-15--15-15-15--15-15-15-15-15---15-15-------------------------
X--x--X---X--X--X--X---X--X--X--X--X----x---x-------------------------
12-12-12-12--12-12-12--12-12-12-12-12---12--12------------------------
----------------------------------------------------------------------
----------------------------------------------------------------------

Guitar 2 Head

----------------------------------------------------------------------
----------------------------------------------------------------------
----------------------------------------------------------------------
5----5-7-6---5--5-7----6----6----5------5-7---6--5--4--4---3----------
5----5-7-6---5--5-7----4----4----5------5-7---6--5--4--4---3----------
3----3-5-4---3--3-5----4----4----3------3-5---4--3--2--2---1----------

Bridge

----------------------------------------------------------------------
----------------------------------------------------------------------
----------------------------------------------------------------------
----------------------------------------------------------------------
---------4-3----------4-3---------------------------------------------
2-3--3-3-----4-3--3 3-----4-3-----------------------------------------

And very end let this note ring

10--
13--
----
----
----
----

Now, this song is played on a 7 string,  but this is made for a 6 string.  So if u have questions
email ma @ kornkracka0569@aol.com
Comments