Korn - Shoots And Ladders Chords & Tabs

 

Shoots And Ladders Chords & Tabs

Korn Chords & Tabs

Version: 1 Type: Bass Tab 0 ratings
1 star 2 stars 3 stars 4 stars 5 stars
comments

Shoots And Ladders Bass Tab

Downloaded from WWW.KORNWEB.COM

Shoots and Ladders - Bass Tab
2 Transcriptions

Transcribed By: CrickeT supertico@hotmail.com

--------------------------------------------------------------

Tuning: (low to high) AEADG

INTRO
G||--------------------|---------------------|
D||--------------------|---------------------|
A||--------------------|---------------------|
E||--------------------|---------------------|
A||--0-0-----0-0--0-0--|--0-0-----0-0-0-0-0--|

VERSE
G||-----------------------------|
D||----------x---x---x---x---x--|
A||----------x---x---x---x---x--|
E||--------x-x-x-x-x-x-x-x-x-x--|
A||--3-----x-x-x-x-x-x-x-x-x-x--|
           1 + 2 + 3 + 4 + 5 +

CHORUS
G||---------------|-----------|
D||---------------|-----------|
A||---------------|-----------|
E||---------------|-----------|
A||--3--3-5--4-3--|--3--2--1--|

BREAKDOWN  (knick knack!)              (baa, baa, black sheep)
G||-----------------------------------|---------------------------------|
D||-----------------------------------|---------------------------------|
A||-----------------------------------|---------------------------------|
E||---------3h2--------------3h2------|---------------------------------|
A||--3--3-3-----5h3----3-3-3-----5h3--|--5--3--1--3~~~-1----5--3--3--1--|

[ Tab from: http://www.guitartabs.cc/tabs/k/korn/shoots_and_ladders_btab.html ]
--------------------------------------------------------------

 Transcribed by Jon Swanberg (Explicit@aol.com) 

* = muted

D||------------------|
A||------------------|
D||------------------|   
A||--1*1*1*---1-111--|

Ring Around the Rosies part:
D||-------------------------|
A||-------------------------|
D||-------------------------|
A||--3----------3*3*3*3*3*--|

Nursery Rhymes part:  
D||------------------------------------------------------------|
A||------------------------------------------------------------|
D||------------------------------------------------------------|
A||--3---3-----5--5--4-3--3----5---5-4----3-----3--5--4-3-2-1--|

Knick knack part:
D||-----------------------------------------|
A||-----------------------------------------| 
D||-----------4\3----------------4\3--------|
A||--3--3-3--------4\3--3--3-3---------4\3--|

Mary Had a little Lamb part:
Repeat a few times
D||----------------------------------------|
A||----------------------------------------|
D||----------------------------------------|
A||--3------3--3--2--1----3-3--2--------1--|

Then the last hit:
D||--------------------------------------|
A||--------------------------------------|
D||----------------------------------15--|
A||-----3*3*3*------3*3*3*3*-------------|




Comments