Korn - Right Now Chords & Tabs

 

Right Now Chords & Tabs

Korn Chords & Tabs

Version: 9 Type: Tab 0 ratings
1 star 2 stars 3 stars 4 stars 5 stars
comments

Right Now Tab

   
KoRn - Right Now(LVMA intro)

Tabbed by Elvisz (elvisz@kornkids.com)
Tuning : 7 String Tuned Low to High (A D G C F A D)

Vocal: Jonathan Houseman Davis 'Hiv'
Guitar1: Brian Phillip Welch 'Head'
Guitar2: James Randal Shaffer 'Munky'
Bass: Reginald Arvizu 'Fieldy'
Drums: David Silveria

Intro:
d|----------0----0--0--0--|----------0----0--0--0--|
a|----------0----0--0--0--|----------0----0--0--0--|
F|----------1----1--1--1--|----------1----1--1--1--|
C|----------2----2--2--2--|----------2----2--2--2--|	(Guitar2)
G|----------2----2--2--2--|----------2----2--2--2--|
D|--0----0--0----------0--|--1----1--1----------1--|
A|------------------------|------------------------|

d|-------------------------------------------------|
a|-------------------------------------------------|
F|-9\\\\4-4~~~----5/7--5~~----5-4-2-------1-1--2-2-|
C|-------------------------------------------------|	(Guitar1)
G|-------------------------------------------------|
D|-------------------------------------------------|
A|-------------------------------------------------|
[ Tab from: http://www.guitartabs.cc/tabs/k/korn/right_now_tab_ver_9.html ]
d|--------------------------------------------------------------|
a|-12~~~-------13151715~131517-15-13----------------------------|
F|-------131416----------------------16-14--13~--10~---9~--10-9-|
C|--------------------------------------------------------------| (Guitar1)
G|--------------------------------------------------------------|
D|--------------------------------------------------------------|
A|--------------------------------------------------------------|

Verse:
d|---------------------|
a|---------------------|
F|---------------------|
C|---------------------|	(Guitar2)
G|---------------------|
D|-7-7-7-7-78-8-8-8108-|
A|-5-5-5-5-56-6-6-6 86-|

d|--------------------|
a|--------------------|
F|--------------------|
C|--------------------|	(Guitar1)
G|-2-2-2-2-23-3-3-353-|
D|-0-0-0-0-01-1-1-131-|
A|--------------------|

Bridge:
d|-------------|
a|-------------|
F|-------------|
C|-------------|	(Guitar2)
G|-7~~~~8~~8~~-|
D|-7~~~~8~~8~~-|
A|-5~~~~6~~6~~-|

d|-------------------------------------|
a|-12~~-13/15\13~~-10\9~~-7/9/10~-5~5~-|
F|-xx~~-xxxxxxxx~~-xxxx~~-xxxxxx~-x~x~-|
C|- 9~~-10/12\10~~- 7\6~~-4/6/ 7~-2~2~-|	(Guitar1)
G|-------------------------------------|
D|-------------------------------------|
A|-------------------------------------|

Verse:
d|---------------------|
a|---------------------|
F|---------------------|
C|---------------------|	(Guitar2)
G|---------------------|
D|-7-7-7-7-78-8-8-8108-|
A|-5-5-5-5-56-6-6-6 86-|

d|--------------------|
a|--------------------|
F|--------------------|
C|--------------------|	(Guitar1)
G|-2-2-2-2-23-3-3-353-|
D|-0-0-0-0-01-1-1-131-|
A|--------------------|
Comments