Korn - Right Now Chords & Tabs

 

Right Now Chords & Tabs

Korn Chords & Tabs

Version: 8 Type: Tab 0 ratings
1 star 2 stars 3 stars 4 stars 5 stars
comments

Right Now Tab

   
Title: Right Now
Artist: Korn

Transcribed By: Neil De Silva
E-Mail: smellyarabdotcom@yahoo.co.uk
Website: www.shmolexonline.cjb.com

This is tabbed out for six string guitar for those whom dont have a 7 string.

Tuning (lowest to highest)- A, D, G, C, E, A

 |_________________|
 |-----------------|
 |    *Intro*      |
 |-----------------|
 |_________________|
 |                 |

Guitar 1 (Distortion)
|A|------------------------------------------------||
|E|------------------------------------------------||
|C|------------------------------------------------||
|G|-------------5------------4------------3--------||
|D|------------------------------------------------||
|A|-0-0-2-0--0---0-0-2-0--0---0-0-2-0--0---0-0-2-0-|| x2
            PM           PM           PM


 |___________________|
 |-------------------|
 |*Full Instrumental*|
 |-------------------|
 |___________________|
 |                   |

Guitar 1 (Distortion)
|A|------------------------------------------------------|
|E|------------------------------------------------------|
|C|-------------12------------11-------------10----------|
|G|--------------X-------------X--------------X----------|
|D|-2-2-4-2--2--10---2-4-2--2--9----2-4-2--2--8----2-4-2-|
|A|-0-0-2-0--0-------0-2-0--0-------0-2-0--0-------0-2-0-|

|--------------------------------------------------------||
|--------------------------------------------------------||
|---------------12------------11-------------10----------||
|----------------X-------------X--------------X----------||
|-2-2-2-4-2--2--10---2-4-2--2--9----2-4-2--2--8----2-4-2-||
|-0-0-0-2-0--0-------0-2-0--0-------0-2-0--0-------0-2-0-|| x4

Guitar 2 (Distortion) (Acompany Guitar 1)
|A|---------------------------------------------------|
|E|---------------------------------------------------|
|C|---------------------------------------------------|
|G|---------------------------------------------------|
|D|-2-2-4-2--2--5--2-4-2--2--4--2-4-2--2--3--2-4-2--2-|
|A|-0-0-2-0--0--3--0-2-0--0--2--0-2-0--0--1--0-2-0--0-| 

|-----------------------------------------------------||
|-----------------------------------------------------||
|-----------------------------------------------------||
|-----------------------------------------------------||
|-2-2-2-4-2--2--5--2-4-2--2--4--2-4-2--2--3--2-4-2--2-||
|-0-0-0-2-0--0--3--0-2-0--0--2--0-2-0--0--1--0-2-0--0-|| x4



 |_______|
 |-------|
 |*Verse*|
 |-------|
 |_______|
 |       |

Guitar 1 (Distortion)

|A|----------------------|
|E|----------------------|
|C|----------------------|
|G|----------------------|
|D|-2-2-4-2--2-2-2-2-4-2-|
|A|-0-0-2-0--0-0-0-0-2-0-| Repeat Through Out Whole Verse

Guitar 2 (Distortion) (Acompany Guitar 1)

|A|----------------------|
|E|----------------------|
|C|----------------------|
|G|----------------------|
|D|-2-2-4-2--2-2-2-2-4-2-|
|A|-0-0-2-0--0-0-0-0-2-0-| Repeat Through Out Whole Verse


 |_________|
 |---------|
 |*Choruse*|
 |---------|
 |_________|
 |         |

[ Tab from: http://www.guitartabs.cc/tabs/k/korn/right_now_tab_ver_8.html ]
Guitar 1 (Distortion)
|A|------------------------------------------------------|
|E|------------------------------------------------------|
|C|-------------12------------11-------------10----------|
|G|--------------X-------------X--------------X----------|
|D|-2-2-4-2--2--10---2-4-2--2--9----2-4-2--2--8----2-4-2-|
|A|-0-0-2-0--0-------0-2-0--0-------0-2-0--0-------0-2-0-|

|--------------------------------------------------------||
|--------------------------------------------------------||
|---------------12------------11-------------10----------||
|----------------X-------------X--------------X----------||
|-2-2-2-4-2--2--10---2-4-2--2--9----2-4-2--2--8----2-4-2-||
|-0-0-0-2-0--0-------0-2-0--0-------0-2-0--0-------0-2-0-|| x4

Guitar 2 (Distortion) (Acompany Guitar 1)
|A|---------------------------------------------------|
|E|---------------------------------------------------|
|C|---------------------------------------------------|
|G|---------------------------------------------------|
|D|-2-2-4-2--2--5--2-4-2--2--4--2-4-2--2--3--2-4-2--2-|
|A|-0-0-2-0--0--3--0-2-0--0--2--0-2-0--0--1--0-2-0--0-| 

|-----------------------------------------------------||
|-----------------------------------------------------||
|-----------------------------------------------------||
|-----------------------------------------------------||
|-2-2-2-4-2--2--5--2-4-2--2--4--2-4-2--2--3--2-4-2--2-||
|-0-0-0-2-0--0--3--0-2-0--0--2--0-2-0--0--1--0-2-0--0-|| x4

_________________________________
          
 |_______|
 |-------|
 |*Verse*|
 |-------| Play Verse Agian
 |_______|
 |       |




 |_________|
 |---------|
 |*Choruse*| Play Again
 |---------|
 |_________|
 |         |

_________________________________
 
 |________|
 |--------|
 |*Middle*| 
 |--------|
 |________|
 |        |

Guitar 1 (Wah effect on a clean channel)
|A|-----------|
|E|-----------|
|C|-----------|
|G|-----------|
|D|-----------|
|A|-4-4-5-\-4-| Repeat Until The Heavy Riff Kicks In
   PM..|

Guitar 1 & 2 (Distortion)
|A|------------|----------------|
|E|------------|----------------|
|C|------------|----------------|
|G|------------|----------------|
|D|-6-6-7-\--6-|-6-6-6-6-7-\--6-|
|A|-4-4-5--\-4-|-4-4-4-4-5--\-4-| Repeat


Guitar 1 (Distortion)
|A|------------------------------------------------||
|E|------------------------------------------------||
|C|------------------------------------------------||
|G|-------------5------------4------------3--------||
|D|------------------------------------------------||
|A|-0-0-2-0--0---0-0-2-0--0---0-0-2-0--0---0-0-2-0-|| x2
            PM           PM           PM

Interlude: Guitar 1 or 2 (Distortion)

|A|-------------||
|E|-------------||
|C|-------------||
|G|-------------||
|D|-------------||
|A|-0-0-0-0-2-0-|| x2

Guitar 2 (Distortion)
|A|------------------------------------------------||
|E|------------------------------------------------||
|C|------------------------------------------------||
|G|-------------5------------4------------3--------||
|D|------------------------------------------------||
|A|-0-0-2-0--0---0-0-2-0--0---0-0-2-0--0---0-0-2-0-|| x2
            PM           PM           PM

_________________________________
 
 |_________|
 |---------|
 |*Choruse*| Play Again
 |---------|
 |_________|
 |         |


 |_______|
 |-------|
 |*Verse*| Play verse music but this time let the note at the end ring 
 |-------|
 |_______|
 |       |

_________________________________END_________________________________
 
Please give some feedback on this tab if you have time, some of the parts on this
track that are not noticable like queit squeeks that the guitarists have freestyled
are not tabbed plus they are really easy to figure, tabs accurate.

Enjoy
Comments