Korn - Right Now Chords & Tabs

 

Right Now Chords & Tabs

Korn Chords & Tabs

Version: 7 Type: Tab 0 ratings
1 star 2 stars 3 stars 4 stars 5 stars
comments

Right Now Tab

Song:Righ now
Artist:KoRn
Album:Take a look in the mirror
By monkee

Intro and chorus(guitar 1 & 2) starts guitar one, then both guitar
D|--------------------------------------------------|
A|--------------------------------------------------|
F|--------------------------------------------------|
C|--------------------------------------------------|
G|--------------------------------------------------|
D|--------------------------------------------------|
A|-00-1-0--0-15-00--1-0--0-14-00-1-0--0-13--00-1-0--|

Verse(both guitar)
D|-----------------------------------------------|
A|-----------------------------------------------|
F|-----------------------------------------------|
C|-----------------------------------------------|
G|-----------------------------------------------|
D|-----------------------------------------------|
A|-00-1-0---0000-1-0-----------------------------|
[ Tab from: http://www.guitartabs.cc/tabs/k/korn/right_now_tab_ver_7.html ]
Interlude( guitar 1) use an autoya and delay( RP 200)
D|-----------------------------------------------|
A|-----------------------------------------------|
F|-----------------------------------------------|
C|-----------------------------------------------|
G|-----------------------------------------------|
D|-----------------------------------------------|
A|----XX--4^---XX--4^----------------------------|

the heavy part!after interlude

D|-----------------------------------------------|
A|-----------------------------------------------|
F|-----------------------------------------------|
C|-----------------------------------------------|
G|--00-1-0---0000-1-0----------------------------|
D|--00-1-0---0000-1-0----------------------------|
A|--00-1-0---0000-1-0----------------------------|



Outro (both guitar)
D|-----------------------------------------------|
A|-----------------------------------------------|
F|-----------------------------------------------|
C|-----------------------------------------------|
G|-----------------------------------------------|
D|-----------------------------------------------|
A|--0000-1-0--0000-1-0--0000-1-0--0000-1-0-------|

This song is to easy to play! Any mistake or question let me know (Korn_headd@hotmail.com)
Comments