Korn - Right Now Chords & Tabs

 

Right Now Chords & Tabs

Korn Chords & Tabs

Version: 6 Type: Tab 0 ratings
1 star 2 stars 3 stars 4 stars 5 stars
comments

Right Now Tab

 ok everyone i made this really easy to understand so you can find yourself if
you get lost playin it. so i added the lyrics and wrote the order and how many
times they are played at the bottom. have fun....oh yeah GET WELL SOON OZZY!!!


Intro- 6x
D-----------------------------------------
A-----------------------------------------
F-----------------------------------------
C-----------------------------------------
G------------5------------4---------3-----
D-----------------------------------------
A--0-0-1-0-0----0-0-1-0-0---0010-0----0010

verse-8x (0:29)
D-----------------------------------------
A-----------------------------------------
F-----------------------------------------
C-----------------------------------------
G-----------------------------------------
D-----------------------------------------
A-0-0-1-0---0-0-0-1-0---------------------
"im feeling mean today, not lost not blown away
 just irritated and quite hated self control breaks down.
 whys everything so tame? i like my life insane
 im fabericating and debating who im gonna kick around"
Chorus- 4x (0:47)
D-----------------------------------------
A-----------------------------------------
F-----------------------------------------
C-----------------------------------------
G------------5------------4---------3-----
D-----------------------------------------
A--0-0-1-0-0----0-0-1-0-0---0010-0----0010
 "Right now...can't find away to get across the hate when i see you
  Right now...I'm feeling strange insideI want to slash and feed you
  Right now...I rip apart the things inside that excite you
  Right now...i cant control myself I fucking hate you"

Interlude- only play 1 time (1:06)
D-----------------------------------------
A-----------------------------------------
F-----------------------------------------
C-----------------------------------------
G-6-6-7-6---------------------------------
D-6-6-7-6---------------------------------
A-4-4-5-4---------------------------------

verse-8x (1:08)
D-----------------------------------------
A-----------------------------------------
F-----------------------------------------
C-----------------------------------------
G-----------------------------------------
D-----------------------------------------
A-0-0-1-0---0-0-0-1-0---------------------
 "I'm feeling cold today Not hurt just Fucked away I'm devastated and
frustrated God I feel so bound So why'd I feel the need? I think it's time to
bleed I'm gonna cut myself and watch the blood hit the ground"
[ Tab from: http://www.guitartabs.cc/tabs/k/korn/right_now_tab_ver_6.html ]
Chorus- 4x (1:27)
D-----------------------------------------
A-----------------------------------------
F-----------------------------------------
C-----------------------------------------
G------------5------------4---------3-----
D-----------------------------------------
A--0-0-1-0-0----0-0-1-0-0---0010-0----0010
 "Right now...can't find away to get across the hate when i see you
  Right now...I'm feeling strange insideI want to slash and feed you
  Right now...I rip apart the things inside that excite you
  Right now...i cant control myself I fucking hate you"

Break----
"You open your mouth again i swear im gonna break it
 you open your mouth again o god i can not take it
 Shut up,shut up, shut up or ill fuck you up
 Shut up,shut up, shut up or ill fuck you up"    

other part-8x (2:04)
D-----------------------------------------
A-----------------------------------------
F-----------------------------------------
C-----------------------------------------
G-----------------------------------------
D---------3-2----------3-2----------------
A-0-0-0-0-1-0--0-0-0-0-1-0----------------
"shut up, shut up, shut up or ill fuck you up
 shut up, shut up, shut up or ill fuck you up
 shut up, shut up, shut up or ill fuck you up
 shut up, shut up, shut up or ill fuck you up"

repeat intro-3x (2:23)
D-----------------------------------------
A-----------------------------------------
F-----------------------------------------
C-----------------------------------------
G------------5------------4---------3-----
D-----------------------------------------
A--0-0-1-0-0----0-0-1-0-0---0010-0----0010

Chorus- 4x (2:32)
D-----------------------------------------
A-----------------------------------------
F-----------------------------------------
C-----------------------------------------
G------------5------------4---------3-----
D-----------------------------------------
A--0-0-1-0-0----0-0-1-0-0---0010-0----0010
"Right now...can't find away to get across the hate when i see you
 Right now...I'm feeling strange insideI want to slash and feed you
 Right now...I rip apart the things inside that excite you
 Right now...i cant control myself I fucking hate you"

outro-8x (2:51)
D-----------------------------------------
A-----------------------------------------
F-----------------------------------------
C-----------------------------------------
G-----------------------------------------
D---------3-2----------3-2----------------
A-0-0-0-0-1-0--0-0-0-0-1-0----------------
 "I Fucking hate you 
  I Fucking hate you 
  I Fucking hate you 
  I Fucking hate you 
  I Fucking hate you (Shut up!) 
  I Fucking hate you (Shut up!) 
  SHUT UP!"

Intro-6x
verse-8x
chorus-4x
Interlude
verse-8x
chorus-4x
break
outro-8x
intro-3x
chorus-4x
outro-8x
Comments