Korn - Right Now Chords & Tabs

 

Right Now Chords & Tabs

Korn Chords & Tabs

Version: 3 Type: Tab 0 ratings
1 star 2 stars 3 stars 4 stars 5 stars
comments

Right Now Tab

Right Now - KoRn
tabbed by - kornflipsk8er(stan_holland@hotmail.com)
TUNING-DADGBE
--__--:MEANS FADE INTO NOTE.

INTRO
RIFF 1
|-----------------------------------------------|
|-----------------------------------------------|
|-----------------------------------------------|
|-----------------------------------------------|
|-----------------------------------------------|
|-0--0-1-0--0-10-00-1-0--0-9-00-1-0--0-8-00-1-0-|

RIFF 2                                              
|-----------------------------------------------|
|-----------------------------------------------|
|-----------------------------------------------|
|-----------------------------------------------|
|-----------------------------------------------|
|-0000-1-0--0-10-00-1-0--0-9-00-1-0--0-8-00-1-0-|

VERSE
|---------------------|
|---------------------|
|---------------------|
|---------------------|   
|-0--0--1-0--0000-1-0-|
|-0--0--1-0--0000-1-0-|

CHORUS
|-----------------------------------------------|
|-----------------------------------------------|
|-----------------------------------------------|
|-----------------------------------------------|
|-----------------------------------------------|
|-0--0-1-0--0-10-00-1-0--0-9-00-1-0--0-8-00-1-0-|

                                                 
|-----------------------------------------------|
|-----------------------------------------------|
|-----------------------------------------------|
|-----------------------------------------------|
|-----------------------------------------------|
|-0000-1-0--0-10-00-1-0--0-9-00-1-0--0-8-00-1-0-|

VERSE
|---------------------|
|---------------------|
|---------------------|
|---------------------|   
|-0--0--1-0--0000-1-0-|
|-0--0--1-0--0000-1-0-|

CHORUS
|-----------------------------------------------|
|-----------------------------------------------|
|-----------------------------------------------|
|-----------------------------------------------|
|-----------------------------------------------|
|-0--0-1-0--0-10-00-1-0--0-9-00-1-0--0-8-00-1-0-|
[ Tab from: http://www.guitartabs.cc/tabs/k/korn/right_now_tab_ver_3.html ]
                                                 
|-----------------------------------------------|
|-----------------------------------------------|
|-----------------------------------------------|
|-----------------------------------------------|
|-----------------------------------------------|
|-0000-1-0--0-10-00-1-0--0-9-00-1-0--0-8-00-1-0-|


BREAKDOWN(WITH PHASER)
|--------------------------------------------|
|--------------------------------------------|
|--------------------------------------------|
|--------------------------------------------|
|--------------------------------------------|
|-4--X-0-4^--4--X-0-4^--4--X-0-4^--4--X-0-4^-|

GTR2
|---------__15-------__19----|
|----------------------------|
|----------------------------|
|-__15-----------------------|
|----------------------------|
|----------------------------|

BULID UP
|---------------------|
|---------------------|
|---------------------|
|-0--0-1-0---0000-1-0-|   
|-0--0-1-0---0000-1-0-|
|-0--0-1-0---0000-1-0-|


PRE-CHORUS
|-----------------------------------------------|
|-----------------------------------------------|
|-----------------------------------------------|
|-----------------------------------------------|
|-----------------------------------------------|
|-0--0-1-0--0-10-00-1-0--0-9-00-1-0--0-8-00-1-0-|

                                                 
|-----------------------------------------------|
|-----------------------------------------------|
|-----------------------------------------------|
|-----------------------------------------------|
|-----------------------------------------------|
|-0000-1-0--0-10-00-1-0--0-9-00-1-0--0-8-00-1-0-|


CHORUS
|-----------------------------------------------|
|-----------------------------------------------|
|-----------------------------------------------|
|-----------------------------------------------|
|-----------------------------------------------|
|-0--0-1-0--0-10-00-1-0--0-9-00-1-0--0-8-00-1-0-|

                                                 
|-----------------------------------------------|
|-----------------------------------------------|
|-----------------------------------------------|
|-----------------------------------------------|
|-----------------------------------------------|
|-0000-1-0--0-10-00-1-0--0-9-00-1-0--0-8-00-1-0-|


OUTRO
|--------------------|
|--------------------|
|--------------------|
|--------------------|
|-0000-1-0--0000-1-0-|
|-0000-1-0--0000-1-0-|



I KNOW KORN PLAYS 7 STRING GUITARS BUT MOST PEOPLE HAVE SIX STRING
GUITARS,INCLUDING MYSELF, THAT IS WHY ALL MY KORN TABS ARE SIX STRING. THIS SONG
IS FUN AND EASY,E-MAIL ME I YOU GOT SOMETHING TO SAY.ENJOI!
Comments