Korn - Right Now Chords & Tabs

 

Right Now Chords & Tabs

Korn Chords & Tabs

Version: 10 Type: Tab 0 ratings
1 star 2 stars 3 stars 4 stars 5 stars
comments

Right Now Tab

Korn: Right Now
Tuning: Drop D
Tabbed by: Joey Kakegamic (joey_kakegamic@hotmail.com

Korn doesn't really does the 7th string of the guitar so i use a 6 string guitar
Any questions or comments email me or add me. This is my first tab so it should
be easy. I'm sure the intro and the chorus is 100% correct  

Intro: (whit distortion)
E|----------------------------------------------------------------|
B|----------------------------------------------------------------|
G|----------------------------------------------------------------| 
D|----------------------------------------------------------------|x3
A|--------------3---------------2---------------1-----------------|
D|--0-0-1-0--0------0-0-1-0--0------0-0-1-0--0-----0-0-1-0--------|

 In the 4 time change to

E|----------------------------------------------------------------|
B|----------------------------------------------------------------|
G|----------------------------------------------------------------|
D|----------------------------------------------------------------|
A|--------------3--------------2---------------1------------------|
D|--0000-1-0-0------0-0-1--0------0-0-1-0--0------0-0-1--0--------|

Verse (clean)

E|------------------------------|
B|------------------------------|
G|------------------------------|
D|------------------------------|
A|--0-0-1--0---0000-1-0---------|
D|--0-0-1--0---0000-1-0---------|

Chorus (distortion)

E|----------------------------------------------------------------|
B|----------------------------------------------------------------|
G|----------------------------------------------------------------| 
D|----------------------------------------------------------------|x3
A|-----------------3-------------2--------------1-----------------|
D|--0-0-1-0--0------0-0-1-0--0------0-0-1-0--0-----0-0-1-0--------|


In the 4 time change to

E|----------------------------------------------------------------|
B|----------------------------------------------------------------|
G|----------------------------------------------------------------|
D|----------------------------------------------------------------|
A|---------------3-------------2---------------1------------------|
D|--0000-1-0-0------0-0-1--0------0-0-1-0--0------0-0-1--0--------|

Verse  (clean)

E|------------------------------|
B|------------------------------|
G|------------------------------|
D|------------------------------|
A|--0-0-1--0---0000-1-0---------|
D|--0-0-1--0---0000-1-0---------|

Chorus (distortion)
[ Tab from: http://www.guitartabs.cc/tabs/k/korn/right_now_tab_ver_10.html ]
E|----------------------------------------------------------------|
B|----------------------------------------------------------------|
G|----------------------------------------------------------------| 
D|----------------------------------------------------------------|
A|---------------3---------------2--------------1-----------------|
D|--0-0-1-0--0------0-0-1-0--0------0-0-1-0--0-----0-0-1-0--------|

In the 4 time change to

E|----------------------------------------------------------------|
B|----------------------------------------------------------------|
G|----------------------------------------------------------------|
D|----------------------------------------------------------------|
A|---------------3-------------2---------------1------------------|
D|--0000-1-0-0------0-0-1--0------0-0-1-0--0------0-0-1--0--------|
Bridge

E|-------------------------------|
B|-------------------------------|
G|-------------------------------|
D|-------------------------------|
A|-------------------------------|
D|--44h5b4--4444h5b4-------------|

Chorus (distortion)

E|----------------------------------------------------------------|
B|----------------------------------------------------------------|
G|----------------------------------------------------------------| 
D|----------------------------------------------------------------|
A|---------------3---------------2--------------1-----------------|
D|--0-0-1-0--0------0-0-1-0--0------0-0-1-0--0-----0-0-1-0--------|


In the 4 time change to
E|----------------------------------------------------------------|
B|----------------------------------------------------------------|
G|----------------------------------------------------------------|
D|----------------------------------------------------------------|
A|---------------3-------------2---------------1------------------|
D|--0000-1-0-0------0-0-1--0------0-0-1-0--0------0-0-1--0--------|

Chorus (distortion)
E|----------------------------------------------------------------|
B|----------------------------------------------------------------|
G|----------------------------------------------------------------| 
D|----------------------------------------------------------------|x3
A|---------------3---------------2--------------1-----------------|
D|--0-0-1-0--0------0-0-1-0--0------0-0-1-0--0-----0-0-1-0--------|

In the 4 time change to

E|----------------------------------------------------------------|
B|----------------------------------------------------------------|
G|----------------------------------------------------------------|
D|----------------------------------------------------------------|
A|---------------3-------------2---------------1------------------|
D|--0000-1-0-0------0-0-1--0------0-0-1-0--0------0-0-1--0--------|


Outro

E|-----------------------------------|
B|-----------------------------------|
G|-----------------------------------|
D|-----------------------------------|
A|--0000--1--0---0000--1-0-----------|
D|--0000--1--0---0000--1-0-----------|
Comments