Korn - Right Now Chords & Tabs

 

Right Now Chords & Tabs

Korn Chords & Tabs

Version: 4 Type: Bass Tab 0 ratings
1 star 2 stars 3 stars 4 stars 5 stars
comments

Right Now Bass Tab

intro- slap through the whole song
-----------------------------------|
-----------------------------------|
-----------------------------------|
-----------------------------------|
--0-0-1-0--------------------------|
verse
-----------------------------------|
-----------------------------------|
-----------------------------------|
-----------------------------------|
---0-0-1-0-000010------------------|
chorus, after intro
-----------------------------------------|
-----------------------------------------|
-----------------------------------------|
-----------------------------------------|
--0-0-1-0-0-3-0-1-0-0-2-0-1-0-0-1-0-1-0--|
bridge
-----------------------------------|
-----------------------------------|
-----------------------------------|
-----------------------------------|
---12/1--12/1--12/1--12/1----------|

-----------------------------------|
-----------------------------------|
-----------------------------------|
-----------------------------------|
--3-3-43--333343-------------------|
during the guitar part
-----------------------------------|
-----------------------------------|
-----------------------------------|
-----------------------------------|
---000010--------------------------|
[ Tab from: http://www.guitartabs.cc/tabs/k/korn/right_now_btab_ver_4.html ]
Comments