Korn - Proud Chords & Tabs

 

Proud Chords & Tabs

Korn Chords & Tabs

Version: 3 Type: Tab 0 ratings
1 star 2 stars 3 stars 4 stars 5 stars
comments

Proud Tab

   
----------------------------------------------------------------------------
		           Proud - KORN (best rock band ever)
----------------------------------------------------------------------------
Tabbed by: Andrew Hedstrom
Email: Hedstrom_korn@hotmail.com
Hey, this song wasent that hard to tab.  This song is kickass and have fun learning it.
i know i did.  if anyone has questions or corrections E-mail them.  The tabs might be off
by a half step or so coz i tuned the guitar differently so, (probally not) but what-ever
it sounds pretty close.


Tuning: A D G C F A D

INTRO
D|---------------------------------------------------------------------|
A|---------------------------------------------------------------------|
F|---------------------------------------------------------------------|
C|--12-12--12--12--12-12-----------------------------------------------|
G|--x--x---x---x---x--x------------------------------------------------|
D|--10-10--10--10--10-10-----------------------------------------------|
A|---------------------------------------------------------------------|
don't let these strings ring out, stop them almost immidiatly to get right sound.  play 
a couple times.

Fill thats used for some parts, u kno where to put them.
D|----------------------------------------------------------------|
A|----------------------------------------------------------------|
F|----9--8~~-12~--------------------------------------------------|
C|----x--x---x----------------------------------------------------|
G|----12-12~-13~--------------------------------------------------|
D|----------------------------------------------------------------|
A|----------------------------------------------------------------|


Then...  *bend the strings a little to get a better sound*
D|----------------------------------------------------------------|
A|----------------------------------------------------------------|
F|--10-9~~---6--7~~-----------------------------------------------|
C|--x--x~~---x--x~~-----------------------------------------------|
G|--8--7~~---4--5~~-----------------------------------------------|
D|----------------------------------------------------------------|
A|----------------------------------------------------------------|
i think head uses a wah pedal on this in the backround, but im not sure
[ Tab from: http://www.guitartabs.cc/tabs/k/korn/proud_tab_ver_3.html ]
Fill thats used for some parts, u kno where to put them.
D|----------------------------------------------------------------|
A|----------------------------------------------------------------|
F|----9--8~~-12~--------------------------------------------------|
C|----x--x---x----------------------------------------------------|
G|----12-12~-13~--------------------------------------------------|
D|----------------------------------------------------------------|
A|----------------------------------------------------------------|

when jon SINGS, "why?...why?...why......."         You can play either
D|------------------------------------------------------------------------|
A|------------------------------------------------------------------------|
F|------------------------------------------------------------------------|
C|--6-6-6-6~--7-7--10-10-9~-----------66666666--777-10-10-99~~------------|
G|--x-x-x-x---x-x--x--x--x------OR----------------------------------------|
D|--4-4-4-4~--5-5--8--8--7~-----------------------------------------------|
A|------------------------------------------------------------------------|

When jon YELLS, "WHY!...WHY!!...WHY!!!"
D|-------------------------------------------------------------------------|
A|-------------------------------------------------------------------------|
F|-------------------------------------------------------------------------|
C|-------------------------------------------------------------------------|
G|---4-4-4~~-5-5---8-8-7~--------------------------------------------------|
D|---x-x-x---x-x---x-x-x---------------------------------------------------|
A|---2-2-2~~-3-3---6-6-5~--------------------------------------------------|


ENDs on this... (idk the crazy ending but i do kno it ends on this)
D|------------------------------------------------------------------------|
A|------------------------------------------------------------------------|
F|----10~~~~~~~~~~--------------------------------------------------------|
C|----x-------------------------------------------------------------------|
G|----7~~~~~~~~~~~--------------------------------------------------------|
D|------------------------------------------------------------------------|
A|------------------------------------------------------------------------|


I might be missing some parts since the song i downloaded was F@#%ed up, so yea...

-also this song isnt exactly in order, u will have to repeat some parts and such.


| /  slide up
| \  slide down
| h  hammer-on
| p  pull-off
| ~  vibrato
| +  harmonic
| x  Mute note
============================================================================
Comments