Korn - Pretty Chords & Tabs

 

Pretty Chords & Tabs

Korn Chords & Tabs

Version: 1 Type: Bass Tab 0 ratings
1 star 2 stars 3 stars 4 stars 5 stars
comments

Pretty Bass Tab

Band- Korn
Song- Pretty

Intro (Fat distortion)
F|-----------------|
C|-----------------|
G|-----------------|x3
D|-8\777\6---------|
A|---------5\444\3-|

F|------------------|
C|------------------|
G|------------------|x1
D|-8\777\6-----6/12-|
A|---------5\4------|

F|-----------------|
C|-----------------|
G|-----------------|x4
D|-8\777\6---------|
A|---------5\444\3-|

Verse (With flanger and delay effects)
F|---------------------------------------------------------|
C|---------10------------------------10--------------------|
G|------10----10--------9/12------10----10-------9/12------|
D|-00-9----------9\7-0-------00-9----------9\7-0------12\9-|
A|---------------------------------------------------------|

Chorus I (Fat distortion)
F|-----------------------|
C|-----------------------|
G|-0---------------------|x3
D|----7------------------|
A|--------10-9-8-7-6-5-4-|

F|-------------------|
C|-------------------|
G|-0-----------------|x1
D|----7--------------|
A|--------10-9-8-7-6-|
[ Tab from: http://www.guitartabs.cc/tabs/k/korn/pretty_btab.html ]
Pre - Verse (With flanger and delay effects)
F|-------------------------------------------------12-----------|
C|---------10--------------10-------------10----11----11\--13\--|
G|------10----10\-------10----10-------10----10-----------------|
D|-00-9------------00-9-----------00-9--------------------------|
A|--------------------------------------------------------------|

Chorus II
F|-----------------------|
C|-----------------------|
G|-0---------------------|x7
D|----7------------------|
A|--------10-9-8-7-6-5-4-|

F|---------------------------|
C|---------------------------|
G|-0-------------------------|x1
D|----7----------------------|
A|--------10-9-8-7-6-5-4-(0)-|

Bridge
F|-------------------------------------------|
C|-------------------------------------------|
G|-------------------------------------------|
D|-------------------------------------------|
A|-(0)-------(0)-(0)-(0)-(0)-(0)-(0)-(0)-(0)-|

Heavy Bridge
F|-----------------|
C|-----------------|
G|-----------------|x3 ------|
D|-8\777\6---------|         |
A|---------5\444\3-|         |
                             |-> twice
F|------------------|        |
C|------------------|        |
G|------------------|x1 -----|
D|-8\777\6-----6/12-|
A|---------5\4------|

Outro: Play chorus until fade out
Comments