Korn - Porno Creep Chords & Tabs

 

Porno Creep Chords & Tabs

Korn Chords & Tabs

Version: 3 Type: Tab 0 ratings
1 star 2 stars 3 stars 4 stars 5 stars
comments

Porno Creep Tab

   
KoRn
Porno Creep 
Life Is Peachy
tuned a whole step down (d,a,f,c,g,d,a)

Riff 1 
Gtr. 1
|-----------------------------------------------------------|
|-----------------------------------------------------------|
|--------------------------12--12--12-12--------12-----12---|
|---14-14-14-14-14-14-14-14--14--14-----14-14-14--14-14--14-|
|-----------------------------------------------------------|
|-----------------------------------------------------------|
|-----------------------------------------------------------|

|------------------------------------|
|------------------------------------|
|-------------12-12-12-12------------|
|--14-14-----------------------------|
|------------------------------------|
|------------------------------------|
|------------------------------------|

gtr. 2      w/mu-tron bi-phaser    
|-19--------------/20--18-----/19---15--12-----|
|-------------------------------------------12-|
|----------------------------------------------|
|----------------------------------------------|
|----------------------------------------------|
|----------------------------------------------|
|----------------------------------------------|

Riff 2
gtr. 1
|--------------15-----------------------15-------------------|
|-14---14---14--------------14---14-14------x-12---12--12-12-|
|--x----x--------------------x----x--x-----------------------|
|-14---14---------------14--14---14-14-----------------------|
|------------------------------------------------------------|
|------------------------------------------------------------|
|------------------------------------------------------------|

|------------------15--|
|------14--14-14---14--|
|------12--12-12---12--|
|--14--14--14-14---14--|
|----------------------|
|----------------------|
|----------------------|
[ Tab from: http://www.guitartabs.cc/tabs/k/korn/porno_creep_tab_ver_3.html ]
gtr.2  w/mu-tron bi-phaser            harm.
|-19---------------/24--18------12-------------|
|----------------------------------------------|
|-------------------------------------14.75----|
|----------------------------------------------|
|----------------------------------------------|
|----------------------------------------------|
|----------------------------------------------|

Riff 3
gtr.1
|-------------------------------------------------------------------|
|-----14-----------14------------14---14-14---14--12-12-12-12-12-12-|
|------x------------x------------12---12-12---12--------------------|
|-14--14---14-14---14-------14---14---14-14-x-14--------------------|
|-------------------------------------------------------------------|
|-------------------------------------------------------------------|
|-------------------------------------------------------------------|

|-------------------15-------17\15------15\12--|
|------14---14-14------------------------------|
|-------x----x--x---------x--------x--x--------|
|-14---14---14-14------------------------------|
|----------------------------------------------|
|----------------------------------------------|
|----------------------------------------------|

|-------17\15-------15\12--------------------------|
|--------------------------------------------------|
|--x--x--------x--x-------x--x--12/15--x--x--x--x--|
|--------------------------------------------------|
|--------------------------------------------------|
|--------------------------------------------------|
|--------------------------------------------------|

|-------17\15------15-13-------------------|
|--------x---------------------------------|
|--x--x-14\12-x--x-------x--x--x--x--x--x--|
|------------------------------------------|
|------------------------------------------|
|------------------------------------------|
|------------------------------------------|
                                          1/2      1/2
|-------------------------------------------------------------|
|------------------15---------15------------------------------|
|--12----12----12-------------------------b12------b12--------|
|-------------------------------------------------------------|
|-------------------------------------------------------------|
|-------------------------------------------------------------|
|-------------------------------------------------------------|

gtr.2 plays the same thing throughout the song.
order:
Riff 1,Riff 2,Riff 3
porno creep   100% correct
Comments