Korn - One Chords & Tabs

 

One Chords & Tabs

Korn Chords & Tabs

Version: 5 Type: Tab 0 ratings
1 star 2 stars 3 stars 4 stars 5 stars
comments

One Tab

one ( metallica )
korn
by:counting on me

intro guitar 1
D--------------------------------------------------
A--------------------------------------------------
F--------------------------------------------------
C--4-0---4-0---4-0--4---0---4---0---4---0----------
G-2-2---------2-2---------0---0-------------2---2--
D------3--3--------3---3----------3---3---0---2----

INTRO GUITAR 2

D----------------------------------------------------
A--------------3-2----3-2----33-2--------------------
F-----2-4/6-4------4-------2------4--7/5-5/4-4/2-2/0-
C-2-4------------------------------------------------
G----------------------------------------------------
D----------------------------------------------------

D----------------------------------------
A------------2-3-2-------2-3-2-----------
F-2-2H4--2/4--------2/4---------2-2/4----
C----------------------------------------
G----------------------------------------
D----------------------------------------

GUITAR 1 END INTRO
D----------------------------------------
A----------------------------------------
F----------------------------------------
C---2---2--------------------------------
G-----------2--2/4/2---------------------
D-0---2---0------------------------------
VERSE
GUITAR 1
D----------------------------------------------------------------
A----------------------------------------------------------------
F----------------------------------------------------------------
C---4---0---4---0---4---0---4---0---4/5/4---4---0---4---0---4---0X2
G-2---2-----------2---2-------------------0---0-----------0------
D---------3---3-----------3---3-------------------3---3-------0--
[ Tab from: http://www.guitartabs.cc/tabs/k/korn/one_tab_ver_5.html ]
D------------------------------------------
A------------------------------------------
F------------------------------------------
C------------------------------------------
G---2---2----------------------------------
D-0---2------------------------------------
VERSE GUITAR 2
D----------------------------------------------------   --------
A-0-0-0-0-0-0-0-0-0-0-0-0-0-0-0-0-0-0-0-0-0-0-0-0-0--   --------
F--4-4-4-4-4-2-4-4-4-4-6-6-2-4-4-4-4-6-6-6-6-7-7-7-7-X2 --------
C----------------------------------------------------   --------
G----------------------------------------------------   ---2---2
D----------------------------------------------------   -0---2--
CHORUS GUITAR 1&2
D---------------------------------------------------------------
A---------------------------------------------------------------
F-----2-4-2-----4-2-4-6-4-2-4-7-777-----------------------------
C-5-5-2-4-2-5-4-4-2-4-6-4-2-4-7-777-5-555-3-333-2---------------
G-5-5-0-2-0-5-4-2-0-2-4-2-0-2-5-555-5-555-3-333-2---------------
D-3-3-------3-2---------------------3-333-1-111-0---------------

VERSE GUITAR 1
VERSE GUITAR 2

CHORUS
INTERLUDE
GUITAR 1

D-------0-0-0-----------------------------
A-------1-1-1-----------------------------
F-7--77-0-2-2-0---------------------------
C-7--77-0-3-3-2---------------------------
G-5--55---0-0-2---------------------------
D-------------0---------------------------
SOLO GUITAR 2
D---------------------------10-8-7-7H8P7----17-14----14-17-17-15-14-14H15P14
A-10-7-7-10-10-8-7-7H8P7----------------8--------15-------------------------
F-----7-------------------7-------------------------------------------------
C---------------------------------------------------------------------------
G---------------------------------------------------------------------------
D---------------------------------------------------------------------------

D----14-15-17--19H17H15-X3--12-14-10-----
A-14-------------------------------------
F----------------------------------------
C----------------------------------------
G----------------------------------------
D----------------------------------------
CHORUS
HEAVY PART GUITAR 1
D----------------------------------------
A----------------------------------------
F----------------------------------------
C-2-2-0-2-0--4-4-4-5-5-5-5-5-------------
G-3-3-2-3-0--2-2-2-3-3-3-3-3-------------
D---------------2-2---3-3-3--------------
GUITAR 2
D----------------------------------------
A----------------------------------------
F-44-2-4/7-7-7-7-888-999-55-6/7-4-888-9--
C----------------------------------------
G----------------------------------------
D----------------------------------------
GUITAR 1&2

HEAVY PART GUITAR 1&2
D----------------------------------------
A----------------------------------------
F----------------------------------------
C-2-2-0-2-0--4-4-4-5-5-5-5-5-5-----------
G-3-3-2-3-0--2-2-2-3-3-3-3-3-3-----------
D---------------2-2---3-3-3--O-----------
HEAVY PART 2
D------------------------------------------
A------------------------------------------
F------------------------------------------
C--2222222-----222222-2--2222222-3---------
G--2222222-X8--222222-2--2222222-3---------
D--0000000-----000000-0--0000000(1)--------
GUITAR 2
D----------------------------------------
A----------------------------------------
F----------------------------------------
C----------------------------------------
G------7------7/8------5-----5/8---------X2
D--0X7---OX7-------0X7---OX7-------------
OUTRO   (MANY TIMES)
D-------------------
A-------------------
F-------0-----------
C--2222-2--2222-3---
G--2222-2--2222-3---
D--0000-0--0000-----

END  (MANY TIMES)
D---------------
A---------------
F-2222222-------
C-2222222-------
G-2222222-------
D-0000000-------
Comments