Korn - One Chords & Tabs

 

One Chords & Tabs

Korn Chords & Tabs

Version: 2 Type: Tab 0 ratings
1 star 2 stars 3 stars 4 stars 5 stars
comments

One Tab

This song is a cover that Korn added to their list for the untouchables tour and
was first performed at the untouchables release party at the hammerstine
ballroom.you have to cut into it at what i think is the perfet time while playing
make me bad an which after playing one jonathan yells "fuck all that bullshit"
and they play the intro to justin.finally he says "yall ready for this and plays
freak on a leash.i bought the korn live dvd the day it came out and was surprised
to see this.here's the 100% correct tab to one.


P.S. i'm tabbing this for 6 string because that is what i, and most others play anyway.
[ Tab from: http://www.guitartabs.cc/tabs/k/korn/one_tab_ver_2.html ]
|-------------------------------|
|-------------------------------|
|-------------------------------|  6x
|-----2------2------2------2/3--|
|-----2------2------2------2/3--|
|-0000---0000---0000---0000-----|


|--------------------------------|
|--------------------------------|
|--------------------------------| 2x
|-----7~-----7/8-----5~-----5/8--|
|-----7~-----7/8-----5~-----5/8--|
|-0000---0000----0000---0000-----|


|-------------------------------|
|-------------------------------|
|-------------------------------|  2x
|-----2------2------2------2/3--|
|-----2------2------2------2/3--|
|-0000---0000---0000---0000-----|


|--------------------------------|
|--------------------------------|
|--------------------------------| 2x
|-----7~-----7/8-----5~-----5/8--|
|-----7~-----7/8-----5~-----5/8--|
|-0000---0000----0000---0000-----|

QUESTIONS OR COMMENTS? E-MAIL ME AT kornflipsk8er@yahoo.ca
Comments