Korn - One Live Mtv Icon Metallica Chords & Tabs

 

One Live Mtv Icon Metallica Chords & Tabs

Korn Chords & Tabs

Version: 1 Type: Tab 0 ratings
1 star 2 stars 3 stars 4 stars 5 stars
comments

One Live Mtv Icon Metallica Tab

   
Hi Brothers!!!!!!

One of the best songs of Metallica is "one" and Korn played it
at Mtv Icon Metallica. 
1.st Guitar Plays in the intro with a phaser and a delay


G-----------------------------------------------------------------0-
D-----4------0------4-----0-------------4------0------4------0------
A--2------2-------------------------2------2------------------------
E----------------3-----3---------------------------3------3---------


G---------------------------------------------------------
D-----4------0-----4------0-------4------0----------------
A--2-----2------0-----0-------------------------2-----2---
E-----------------------------3------3-------0-----2------(After two
                                                           times you
                                                           must play
                                                           this: )
A-----------------------------------------------2-----2---2--4--2
E--------------------------------------------0-----2----0--------

After the first part the second guitar plays this without effects:

                 
B----------------------------3p2-----3p2---------3-----3p2-----
G---------2---4b6b4--------------4-------2-----------------4---
D-----2h4------------------------------------------------------

B-----7\5---5\4---4\2---2p0--------------------------------2h3-
G---------7-----------4-----0h2-----2/4--------------2/4-------


B-2-------------2---3p2-------------------------------------------
G---------2/4-----------2----2/4----------------------------------

Verse: Both Guitars play the same and it's like the original.

[ Tab from: http://www.guitartabs.cc/tabs/k/korn/one_live_mtv_icon_metallica_tab.html ]
D-----4-----0-0-4-0-------4-----0--0--4--0-------4------0--0--4--0----4----0-0-4-0
A--2-----2------------------------------------2------2------------------------------
E----------------------3-----3-------------------------------------3-----3----------

G----------------------------------0-----------------------------------------
D------4----0-0-4-0-------4----2-4--------4-----0-0-4-0----------------------
A--2------2------------0-----2-----------------------------2----2--2-4-2-----
E--------------------------------------3-----3-----------0----2---0----------



 
Chorus:

Take a middle heavy Dist for the chorus

G A B A G F# A B C B A B C


The Solo is played like the Metalliva Version

B-------------10p7-----7------10-----10---8---7-----7h8p7---
G------------------7-----------------------------9---------7

 
e-/10-8-7-----7---8----------17p14-----14--17---17-15--14---15p14
B---------10---------8~~~~~---------15---------------------------
 
e------------------15--17----19p17p15-19p17p15-19p17p15-14-15----14--
B-15------15--19----------------------------------------------17----15




Then comes the heavy Part:

E E E E E B C

E let ring

Darkness is Prison in me:

E E E E E E E E E E E F 

E E E E E E E E E E E E (find the Rythmus yourself =P )



Have You any questions ??
Send a mail to Christian@moonychat.org

Comments