Korn - Need To Chords & Tabs

 

Need To Chords & Tabs

Korn Chords & Tabs

Version: 2 Type: Tab 0 ratings
1 star 2 stars 3 stars 4 stars 5 stars
comments

Need To Tab

Artist: KoRn
Song: Need To
Album: KORN (Self titled)
Tabbed By: Kommon (faimilyval@aol.com)

7-string ibanez 
theres 4 main parts played threwout the whole song 

distortion on whole song

intro/verse
----------------------------------------------------------------------
----------------------------------------------------------------------
----------------------------------------------------------------------
----------------------------------------------------------------------
-3-x-3-2---3-x-3-2---3-x-3-2---3-x-3-2--------------------------------
-3-x-3-2---3-x-3-2---3-x-3-2---3-x-3-2--------------------------------
-2-x-2-2---2-x-2-2---2-x-3-2---2-x-3-2--------------------------------

----------------------------------------------------------------------
----------------------------------------------------------------------
----------------------------------------------------------------------
----------------------------------------------------------------------
-4-x-4-3-2----4-x-4-3-2-----------------------------------------------
-4-x-4-3-2----4-x-4-3-2-----------------------------------------------
-3-x-3-3-2----3-x-3-3-2-----------------------------------------------
[ Tab from: http://www.guitartabs.cc/tabs/k/korn/need_to_tab_ver_2.html ]
Slow part~let ring
----------------------------------------------------------------------
----------------------------------------------------------------------
----------------------------------------------------------------------
----------------------------------------------------------------------
-4---3---2---4--5---6-------------------------------------------------
-4---3---2---4--5---6-------------------------------------------------
-4---3---2---4--5---6-------------------------------------------------

play this part during "whhhyyyyy"
----------------------------------------------------------------------
----------------------------------------------------------------------
----------------------------------------------------------------------
----------------------------------------------------------------------
-3-2-1-3-2-3-2-3-1----------------------------------------------------
-3-2-1-3-2-3-2-3-1----------------------------------------------------
-3-2-1-3-2-3-2-3-1----------------------------------------------------

and at one point during that part add this to the part above
----------------------------------------------------------------------
----------------------------------------------------------------------
----------------------------------------------------------------------
----------------------------------------------------------------------
-3-2-1-2-4-2-1--------------------------------------------------------
-3-2-1-2-4-2-1--------------------------------------------------------
-3-2-1-2-4-2-1--------------------------------------------------------

Comments