Korn - Make Me Bad Chords & Tabs

 

Make Me Bad Chords & Tabs

Korn Chords & Tabs

Version: 7 Type: Tab 0 ratings
1 star 2 stars 3 stars 4 stars 5 stars
comments

Make Me Bad Tab

This song is meant for a seven string guitar, but is also possible to be played
on a six string, so im gona tab it in six string...

Intro (not sure bout weird very beginning part)

|-------------|
|-------------|
|-------------|
|8-8-7-7-8-8-8|
|8-8-7-7-8-8-8|
|6-6-5-5-6-6-6|  play repeatedly

Verses

|13----------|
|----14------|
|---------15-|
|------------|
|------------|
|------------|   play this repeatedly too

Chorus
[ Tab from: http://www.guitartabs.cc/tabs/k/korn/make_me_bad_tab_ver_7.html ]
|-------------------------------|
|-------------------------------|
|-------------------------------|
|5-5-5-5-7-7-7-7-8-8-8-8-7-7-7-7|
|5-5-5-5-7-7-7-7-8-8-8-8-7-7-7-7|
|3-3-3-3-5-5-5-5-6-6-6-6-5-5-5-5|   guess what, u needa play this repeatedly too

Interlude

|-----------|
|-----------|
|------8-8-8|
|7-7-7-8-8-8|
|7-7-7-6-6-6|
|5-5-5------| it turns into this... (see below)

|-------------|
|-------------|
|--------8-8-8|
|7-7-6-6-8-8-8|
|7-7-6-6-6-6-6|
|5-5-4-4------|

Outro

|---------|
|---------|
|---------|
|5-5-8-8-7|
|5-5-8-8-7|
|3-3-6-6-5| let the last chord ring or play repeatedly, your choice

There ya go, its not a hard song, it's slower and easier to play then most
of Korn's songs but still, it's one of my favourite's have fun with this ;)
Comments