Korn - Make Me Bad Chords & Tabs

 

Make Me Bad Chords & Tabs

Korn Chords & Tabs

Version: 5 Type: Tab 0 ratings
1 star 2 stars 3 stars 4 stars 5 stars
comments

Make Me Bad Tab

   
Make Me Bad-Korn
Issues

Transcribed By: Jephthah Rae
Email: jeffrae@knet.ca

7 String
A D G C F A D

Intro: w/ whammy pedal up one oct.

gtr. 1

d--------------------------------------------------------------14-
a-----------------------------------------------------------------
f-----------------------------------------------------------------
c-----------------------------------------------------------------
g-----------------------------------------------------------------
d-----------------------------------------------------------------
a-----------------------------------------------------------------

d---------------------------15---14----------------------------14-
a-12----------------------------------12--------------------------
f-----------------------------------------------------------------
c-----------------------------------------------------------------
g-----------------------------------------------------------------
d-----------------------------------------------------------------
a-----------------------------------------------------------------

d---------------------------15---14-------------------------------
a-12----------------------------------12--------------------------
f-----------------------------------------------------------------
c-----------------------------------------------------------------
g-----------------------------------------------------------------
d-----------------------------------------------------------------
a-----------------------------------------------------------------

gtr. 2

d-----------------------------------------------------------------
a-----------------------------------------------------------------
f------------------------------------------------------------5\4--
c------------------------------------------------------------x-x--
g------------------------------------------------------------3\2--
d-----------------------------------------------------------------
a-----------------------------------------------------------------

gtr. 2 x3

d-----------------------------------------------------------------
a-----------------------------------------------------------------
f-5\4----4----5----5\4-5\4----4----5----5\4-5\4----4----5----5\4--
c-x-x----x----x----x-x-x-x----x----x----x-x-x-x----x----x----x-x--
g-3\2----2----3----3\2-3\2----2----3----3\2-3\2----2----3----3\2--
d-----------------------------------------------------------------
a-----0----0---------------0----0----------------0----0-----------

gtr. 3 x3

d-------------8--------------------8------------------------------
a-------------8--------------------8------------------------------
f-------------5--------------------5------------------------------
c-----------------------------------------------------------------
g-----------------------------------------------------------------
d-----------------------------------------------------------------
a-----------------------------------------------------------------

then

gtr. 2
[ Tab from: http://www.guitartabs.cc/tabs/k/korn/make_me_bad_tab_ver_5.html ]
d-----------------------------------------------------------------
a-----------------------------------------------------------------
f-5\4----4----5----5\4-5\4----4----5------------------------------
c-x-x----x----x----x-x-x-x----x----x------------------------------
g-3\2----2----3----3\2-3\2----2----3------------------------------
d-----------------------------------------------------------------
a-----0----0---------------0----0---------------------------------

gtr. 3

d-------------8--------------------8------------------------------
a-------------8--------------------8------------------------------
f-------------5--------------------5------------------------------
c-----------------------------------------------------------------
g-----------------------------------------------------------------
d-----------------------------------------------------------------
a-----------------------------------------------------------------

Verses: piano arr. for gtr. w/ intro Riff

d-----------------------------------------------------------------
a--------------------5--------5----------------------5--------5---
f------5-----------------7------------5------------------7--------
c-7---------------6--------------7----------------6---------------
g-----------------------------------------------------------------
d-----------------------------------------------------------------
a-----------------------------------------------------------------

d-----------------------------------------------------------------
a--------------------5--------5-----------------------------------
f------5-----------------7------------5---------------------------
c-7---------------6--------------7----------------6---------------
g-----------------------------------------------------------------
d-----------------------------------------------------------------
a-----------------------------------------------------------------

Chorus:

gtr. 4

d-----------------------------------------------------------------
a--------------------------3---5-------7------------7----3--------
f-4----------------2----4-------------------------------------2---
c-----------------------------------------------------------------
g-----------------------------------------------------------------
d-----------------------------------------------------------------
a-----------------------------------------------------------------

gtr. 2

d-----------------------------------------------------------------
a-----------------------------------------------------------------
f-----------------------------------------------------------------
c-2----3-3----2-------------------2/3--2-----3-3----2-------------
g-2----3-3----2----3--------2-----2/3--2-----3-3----2----3----2---
d-0----1-1----0----3--------2-----0----0-----1-1----0----3----2---
a------------------1--------0----------------------------1----0---

gtr. 4

d-----------------------------------------------------------------
a--------------------------3---5-------7-----8-8----7----3----3-3-
f-4----------------2----4------------------------------------4-4--
c-----------------------------------------------------------------
g-----------------------------------------------------------------
d-----------------------------------------------------------------
a-----------------------------------------------------------------

gtr. 2

d-----------------------------------------------------------------
a-----------------------------------------------------------------
f-----------------------------------------------------------------
c-2----3-3----2-------------------2/3--2-----3-3----2-------------
g-2----3-3----2----3--------2-----2/3--2-----3-3----2----3----2---
d-0----1-1----0----3--------2-----0----0-----1-1----0----3----2---
a------------------1--------0----------------------------1----0---
Comments