Korn - Make Me Bad Chords & Tabs

 

Make Me Bad Chords & Tabs

Korn Chords & Tabs

Version: 1 Type: Tab 0 ratings
1 star 2 stars 3 stars 4 stars 5 stars
comments

Make Me Bad Tab

Artist: Korn
Song: Make Me Bad
Tabbed by: John leadman
 


Tuned Down One Half Whole Step (DGCFAd)


(Intro Pt 1: Guitar 1)
d ||----3--2--|
A ||----------|
F ||-4--------|
C ||----------|
G ||----------|
D ||----------|

(Clean)

(Intro Pt 2:Guitars 1 and 2)
d ||--------------------|
A ||--------------------|
F ||-5/4/5--4--5--------|
C ||-5/4/5--4--5--------|
G ||-3/2/3--2--3--------|
D ||--------------------|
(Note: / = Hammer On)

(With Heavy Distortion)

(Verse)

(Guitar 1)
d ||----3--2--|
A ||----------|
F ||-4--------|
C ||----------|
G ||----------|
D ||----------|
[ Tab from: http://www.guitartabs.cc/tabs/k/korn/make_me_bad_tab.html ]
(Guitar 2)
d ||---------------------||---------------------|
A ||---------------------||---------------------|
F ||---------------------||---------------------|
C ||----------7----------||----------6----------|
G ||----7--------5-------||----6--------4-------|
D ||-5-----5--------5--5-||-4-----4--------4--4-|

(Both Guitars Clean)


(Chorus:Guitars 1 and 2)

d ||----------------------------|
A ||----------------------------|
F ||----------------5--5--5--4--|
C ||-2--2--2--3--2--5--5--5--4--|
G ||-2--2--2--3--2--3--3--3--2--|
D ||-0--0--0--1--0--------------|

(Both With Heavy Distortion)

The After Chorus Runs Thru The Second time a Guitar Break
starts, and its using one chord..here it is....

d ||----|
A ||----|
F ||-5--|
C ||-5--|
G ||-3--|
D ||----| 

(Played with Slight Distorion)

Comments