Korn - Make Me Bad Chords & Tabs

 

Make Me Bad Chords & Tabs

Korn Chords & Tabs

Version: 4 Type: Bass Tab 0 ratings
1 star 2 stars 3 stars 4 stars 5 stars
comments

Make Me Bad Bass Tab

   
Artist: Korn
Song: Make Me Bad
Album: Issues
Tabbed By: Mathias

intro (heavier part):
G[-----------------------------------|
D[-----------------------------------|
A[-----------------------------------|
E[-----------------------------------|
B[-33-x-3/44-x-33-x-3/44-x-33-x-3/44-|

verse:
G[----------------------------------|
D[------11-------11-------10-----10-|
A[--9-9----9-9-9----9/8-8----8-8----|
E[----------------------------------|
B[----------------------------------|
[ Tab from: http://www.guitartabs.cc/tabs/k/korn/make_me_bad_btab_ver_4.html ]
chorus:
G[------------------------------|
D[------------------------------|
A[------------------------------|
E[------------------------------|
B[3-77777-1-0--3-77777-1-0------|

interlude - same as intro

choruses with "Does it make me bad"
G[---------------------------|
D[---------------------------|
A[---------------------------|
E[---------------------------|
B[3--4-3--1--0--3--4--3-1--0-|

Here's how it goes
intro
verse
chorus
verse
chorus
interlude
chorus
choruses with "does it make me bad"

If any comments contact me at INUTERO9089@aol.com
Comments