Korn - Make Me Bad Chords & Tabs

 

Make Me Bad Chords & Tabs

Korn Chords & Tabs

Version: 1 Type: Bass Tab 1 rating
1 star 2 stars 3 stars 4 stars 5 stars
comments

Make Me Bad Bass Tab

   
Song: Make Me Bad
Artist: KoRN
Album: Issues
Transcript by: Patrick Mathieu

Intro(after guitar intro)
G|----------------------------------------|
D|----------------------------------------|
A|----------------------------------------|             (Repeat 8 times)
E|----------------------------------------|
B|-0-0-X-000-X----------------------------|

Verses
Part 1 of verse                        Part 2 of verse
G|------------------------------|---------------------------|
D|------11--------11------------|----------9---------9------|
A|-9-9----9-9-9-----------------|--7-7-7----7-7-7-----------|
E|------------------------------|---------------------------|
B|------------------------------|---------------------------|

Chorus
G|-------------------------------------|
D|-------------------------------------|
A|-------------------------------------|            (repeat 4 times)
E|-------0-0-0-------------------------|
B|-----0-0-0-0-00000-------------------|
[ Tab from: http://www.guitartabs.cc/tabs/k/korn/make_me_bad_btab.html ]
Verses
Part 1 of verse                        Part 2 of verse
G|------------------------------|--------------------------|
D|------11--------11------------|----------9---------9-----|
A|-9-9----9-9-9-----------------|--7-7-7----7-7-7----------|
E|------------------------------|--------------------------|
B|------------------------------|--------------------------|

Chorus
G|-------------------------------------|
D|-------------------------------------|
A|-------------------------------------|            (repeat 8 times)
E|-------0-0-0-------------------------|
B|-----0-0-0-0-00000-------------------|

Bridge
G|---------------------|
D|---------------------|
A|---------------------|                    (repeat this till the chorus 
starts again)
E|---------------------|
B|00X000X000X000|

Chorus
G|-------------------------------------|
D|-------------------------------------|
A|-------------------------------------|            (repeat 4 times)
E|-------0-0-0------------------------|
B|-----0-0-0-0-00000---------------|

(For the last part the song just play dead notes and follow the drums)

Comments