Korn - Lowrider Chords & Tabs

 

Lowrider Chords & Tabs

Korn Chords & Tabs

Version: 1 Type: Bass Tab 0 ratings
1 star 2 stars 3 stars 4 stars 5 stars
comments

Lowrider Bass Tab

Band - KoRn
Song - Lowrider
Album - Life is Peachy
Tabbed by - Justin (Twist) Matteson
e-mail address - justin5745@hotmail.com

4 string tuned down to 5 string

here is the corect way to play Lowrider... the other way's that you
might find are completly wrong, just listen and you'll see...


Main Riff

D|--------------------------------|
A|-------------0-0-03035----------|
E|-------2-3----------------------|
B|---33---------------------------|

After: "Is'nt it lower..."
[ Tab from: http://www.guitartabs.cc/tabs/k/korn/lowrider_btab.html ]
D|---------------------------------------------|
A|------------5-3------------------------5-3---|
E|-------5-3-------5-3--------------5/3--------|
B|--5-3---------------------5-3----------------|

After: "Take a little trip with me..."

D|--------------------------------------|
A|-----------5-3------------------5-3---|
E|------3/55------5-3--------5-3--------|
B|--5-3-----------------5/3-------------|

After: "Ah shit... Ah Shit..."

                   Quick
D|-------------------R------------|
A|-------------0-0-0-E-053--------|
E|-------2-3---------S------------|
B|---33--------------T------------|

Comments