Korn - Lost Chords & Tabs

 

Lost Chords & Tabs

Korn Chords & Tabs

Version: 3 Type: Bass Tab 0 ratings
1 star 2 stars 3 stars 4 stars 5 stars
comments

Lost Bass Tab

   
Band- Korn
Song- Lost

Intro
F|---------|
C|---------|
G|---------| (fat distortion)
D|---------|
A|-2--22-3-|

Verse (slap distortion)
F|----------------------------------|
C|----------------------------------|
G|----------------------------------| Listen song for timing
D|----------------------------------|
A|-2-2-2-2-2-2-2-2-1-0-010-2-1-0-01-|
[ Tab from: http://www.guitartabs.cc/tabs/k/korn/lost_btab_ver_3.html ]
Chorus: Same as Intro

Bridge 1:32 (When drums comes in)
F|---------------|
C|---------------|
G|---------------| Listen song for timing
D|---------------|
A|-22-0-12-00-21-|

Lil solo
F|-------------|
C|-------------|
G|-------------| (slap distortion)
D|-5-4-3-------|
A|-------5-4-3-|

Outro: Same as Intro

Note: Use the distortions if you got a zoom 506
Comments