Korn - Listen Do What I Say Chords & Tabs

 

Listen Do What I Say Chords & Tabs

Korn Chords & Tabs

Version: 1 Type: Tab 0 ratings
1 star 2 stars 3 stars 4 stars 5 stars
comments

Listen Do What I Say Tab

ARTIST: L.A.P.D (Love and Peace Dudes) pre-korn
album: Who's Laughing now
song: Listen (do what i say)
tabbed by: kommon (faimilyval@aol.com)

this is the band made befor korn came out it has munky fieldy david and 
head played live with them and the singer was richard morels which
was spelled morales in the cd and thats why he left the band


INTRO X4
----------------------------------------------------------------------
----------------------------------------------------------------------
----------------------------------------------------------------------
----------------------------------------------------------------------
----------------------------------------------------------------------
-5-5-6-7-6-5-4-------------------------------------------------------


VERSE 1
----------------------------------------------------------------------
----------------------------------------------------------------------
----------------------------------------------------------------------
----------------------------------------------------------------------
----------------------------------------------------------------------
--5-5-6-7-7-6-5-5-5-5-6-7-7-6-4---------------------------------------

[ Tab from: http://www.guitartabs.cc/tabs/k/korn/listen_do_what_i_say_tab.html ]
chorus
----------------------------------------------------------------------
----------------------------------------------------------------------
----------------------------------------------------------------------
-4--6--6--4---4-6-6-4------------------------------------------------
-4--6--6--4---4-6-6-4-------------------------------------------------
-5--4--8--5---5-4-8-5-------------------------------------------------

guitar solo- first play ead with wah wah randomly
-2-3-4-3-2-2-3-4-4-5-4-3-5-4-3-5-4-3-5-4-3-5-4-3-5-4-3-5-4-3----------
----------------------------------------------------------------------
----------------------------------------------------------------------
----------------------------------------------------------------------
----------------------------------------------------------------------
----------------------------------------------------------------------
outro play this when the drums hit at the end
----------------------------------------------------------------------
----------------------------------------------------------------------
----------------------------------------------------------------------
-6--8-10--------------------------------------------------------------
-6--8-10--------------------------------------------------------------
-4--6-8---------------------------------------------------------------

intro x4
verse x8
chorus x2
verse x8
chorus x2
solo (play the two parts randmly listen to song for the timings)
chorus x2
the mumble part!!!!!!!
verse x10
chorus x2
outro x1

find any mistakes, corrections or coments e-mail me faimilyval@aol.com




Comments