Korn - Lies Chords & Tabs

 

Lies Chords & Tabs

Korn Chords & Tabs

Version: 3 Type: Tab 0 ratings
1 star 2 stars 3 stars 4 stars 5 stars
comments

Lies Tab

Band- Korn
Song- Lies
Album- Korn

|------------|
|{} = Fade In|
|// = Tremolo|
|------------|

Intro		         x4
D|----------------------------------|
A|----------------------------------|
F|----------------------------------|
C|----------------------------------|
G|----------------------------------|
D|-6\5-5\4-4\3-3~~--3/4-4\3-3\2-2-2-|
A|-4\3-3\2-2\1-1~~--1/2-2\1-1\0-0-0-|

Main riff                          x4
D|----------------------------------|
A|----------------------------------|
F|----------------------------------|
C|----------------------------------|
G|----------------------------------|
D|-2/5-5\4-4\3-3~~--3/4-4\3-3\2-2-2-|
A|-0/3-3\2-2\1-1~~--1/2-2\1-1\0-0-0-|

1st Verse                                                             x1
D|----------------------------------19//-24--19//-22--19//-24--19//-24-|
A|---------------------------------------------------------------------|
F|-{11}--/11-/12--/11-/11--/11-/12-------------------------------------|
C|---------------------------------------------------------------------|
G|---------------------------------------------------------------------|
D|---------------------------------------------------------------------|
A|---------------------------------------------------------------------|

Main riff                          x4
D|----------------------------------|
A|----------------------------------|
F|----------------------------------|
C|----------------------------------|
G|----------------------------------|
D|-2/5-5\4-4\3-3~~--3/4-4\3-3\2-2-2-|
A|-0/3-3\2-2\1-1~~--1/2-2\1-1\0-0-0-|
[ Tab from: http://www.guitartabs.cc/tabs/k/korn/lies_tab_ver_3.html ]
2nd Verse                            x1 
D|------------------------------------|
A|-------------------19//-24--19//-24-|
F|--/11-/12--/11-/11------------------|
C|------------------------------------|
G|------------------------------------|
D|------------------------------------|
A|------------------------------------|

Main riff                          x4
D|----------------------------------|
A|----------------------------------|
F|----------------------------------|
C|----------------------------------|
G|----------------------------------|
D|-2/5-5\4-4\3-3~~--3/4-4\3-3\2-2-2-|
A|-0/3-3\2-2\1-1~~--1/2-2\1-1\0-0-0-|

Bridge                 x4
D|----------------------|
A|-------3~~--------2~~-|	
F|-------2~~--------1~~-|	
C|-------4~~--------3~~-|		
G|-666-5------555-4-----|		 
D|-666-5------555-4-----|		
A|-444-3------333-2-----|

Interlude x16
D|----------|
A|----------|
F|----------|
C|----------|
G|----------|
D|-2---22-2-|		
A|-0---00-0-|

Intro	                      x4
D|----------------------------------|
A|----------------------------------|
F|----------------------------------|
C|----------------------------------|
G|----------------------------------|
D|-6\5-5\4-4\3-3~~--3/4-4\3-3\2-2-2-|
A|-4\3-3\2-2\1-1~~--1/2-2\1-1\0-0-0-|

Main riff                          x4
D|----------------------------------|
A|----------------------------------|
F|----------------------------------|
C|----------------------------------|
G|----------------------------------|
D|-2/5-5\4-4\3-3~~--3/4-4\3-3\2-2-2-|
A|-0/3-3\2-2\1-1~~--1/2-2\1-1\0-0-0-|

Outro                    	         x4
D|----------------------------------|
A|----------------------------------|
F|----------------------------------|
C|----------------------------------|
G|----------------------------------|
D|-6\5-5\4-4\3-3~~--3/4-4\3-3\2-2-2-|
A|-4\3-3\2-2\1-1~~--1/2-2\1-1\0-0-0-|
Comments