Korn - Lets Do This Now Chords & Tabs

 

Lets Do This Now Chords & Tabs

Korn Chords & Tabs

Version: 3 Type: Tab 0 ratings
1 star 2 stars 3 stars 4 stars 5 stars
comments

Lets Do This Now Tab

   
Band- Korn
Song- lets Do This Now
Album- Take A Look In The Mirror

Intro:(Jonathan comes with the bagpipes)
(It's hard to get out the bagpipes I'll skip it...sorry)
Intro:
d|----------------|
a|----------------|
F|----------------|
C|----------------|	(Guitar1)
G|----------------|
D|----------------|
A|-5-0-0~~~~~~~~~~|

d|----------------|
a|----------------|
F|----------------|
C|----------------|	(Guitar2 with fingernail)
G|----------------|
D|-------2~~~2~~~2|
A|----------------|

Pre-verse:(Guitar1 & Guitar2 goes pretty fast, specially the slides)
d|------------------------------|
a|------------------------------|
F|------------------------------|
C|------------------------------|
G|------------------------------|
D|-(5)\4-0-0-0--0-4\3-00-3\2-00-|
A|-(5)\4-0-0-0--0-4\3-00-3\2-00-|

Verse:
d|---------------------------------|-------------------------------------|
a|---------------------------------|-------------------------------------|
F|---------------------------------|-------------------------------------|
C|---------------------------------|-------------------------------------|(Guitar1)
G|---------------------------------|-------------------------------------|
D|-0-00-5~-0-0-0-5x-0-00-5-0-5-0-6-|-0-00-4~-0-0-0-4x-0-00-4-00-44-0-3~~~|
A|-0-00-5~-0-0-0-5x-0-00-5-0-5-0-6-|-0-00-4~-0-0-0-4x-0-00-4-00-44-0-3~~~|

d|---------------------------------|-------------------------------------|
a|---------------------------------|-------------------------------------|
F|---------------------------------|-------------------------------------|
C|------5~-------5x------5---5---6-|------4~-------4x------4----44---3~~~|(Guitar2)
G|------5~-------5x------5---5---6-|------4~-------4x------4----44---3~~~|
D|-0-00-5~-0-0-0-5x-0-00-5-0-5-0-6-|-0-00-4~-0-0-0-4x-0-00-4-00-44-0-3~~~|
A|-0-00----0-0-0----0-00---0---0-6-|-0-00----0-0-0----0-00---00----0-----|

Chorus:
d|------------------------------|
a|------------------------------|
F|------------------------------|
C|------------------------------|	(Guitar1)
G|------------------------------|
D|-(5)\4-0-0-0--0-4\3-00-3\2-00-|
A|-(5)\4-0-0-0--0-4\3-00-3\2-00-|

d|-------------------------------------------------|
a|-------------------------------------------------|
F|-8888888899998899991111111111111111131313131414\\|
C|-xxxxxxxxxxxxxxxxxxxxxxxxxxxxxxxxxxxxxxxxxxxxxxxx|	(Guitar2)
G|-666666667777667777 9 9 9 9 9 9 9 9111111111212\\|
D|-------------------------------------------------|
A|-------------------------------------------------|

d|-------------------------------------------------|
a|-------------------------------------------------|
F|-8888888899998899991111111111111111131313131111\\|
C|-xxxxxxxxxxxxxxxxxxxxxxxxxxxxxxxxxxxxxxxxxxxxxxxx|	(Guitar2)
G|-666666667777667777 9 9 9 9 9 9 9 911111111 9 9\\|
D|-------------------------------------------------|
A|-------------------------------------------------|

Verse:
d|---------------------------------|-------------------------------------|
a|---------------------------------|-------------------------------------|
F|---------------------------------|-------------------------------------|
C|---------------------------------|-------------------------------------|(Guitar1)
G|---------------------------------|-------------------------------------|
D|-0-00-5~-0-0-0-5x-0-00-5-0-5-0-6-|-0-00-4~-0-0-0-4x-0-00-4-00-44-0-3~~~|
A|-0-00-5~-0-0-0-5x-0-00-5-0-5-0-6-|-0-00-4~-0-0-0-4x-0-00-4-00-44-0-3~~~|
[ Tab from: http://www.guitartabs.cc/tabs/k/korn/lets_do_this_now_tab_ver_3.html ]
d|---------------------------------|-------------------------------------|
a|---------------------------------|-------------------------------------|
F|---------------------------------|-------------------------------------|
C|------5~-------5x------5---5---6-|------4~-------4x------4----44---3~~~|(Guitar2)
G|------5~-------5x------5---5---6-|------4~-------4x------4----44---3~~~|
D|-0-00-5~-0-0-0-5x-0-00-5-0-5-0-6-|-0-00-4~-0-0-0-4x-0-00-4-00-44-0-3~~~|
A|-0-00----0-0-0----0-00---0---0---|-0-00----0-0-0----0-00---00-44-0-----|

Chorus:
d|------------------------------|
a|------------------------------|
F|------------------------------|
C|------------------------------|	(Guitar1)
G|------------------------------|
D|-(5)\4-0-0-0--0-4\3-00-3\2-00-|
A|-(5)\4-0-0-0--0-4\3-00-3\2-00-|

d|-------------------------------------------------|
a|-------------------------------------------------|
F|-8888888899998899991111111111111111131313131414\\|
C|-xxxxxxxxxxxxxxxxxxxxxxxxxxxxxxxxxxxxxxxxxxxxxxxx|	(Guitar2)
G|-666666667777667777 9 9 9 9 9 9 9 9111111111212\\|
D|-------------------------------------------------|
A|-------------------------------------------------|

d|-------------------------------------------------|
a|-------------------------------------------------|
F|-8888888899998899991111111111111111131313131111\\|
C|-xxxxxxxxxxxxxxxxxxxxxxxxxxxxxxxxxxxxxxxxxxxxxxxx|	(Guitar2)
G|-666666667777667777 9 9 9 9 9 9 9 911111111 9 9\\|
D|-------------------------------------------------|
A|-------------------------------------------------|

Bridge1:
d|--------------|
a|--------------|
F|--------------|
C|--------------|	(Guitar1)
G|--------------|
D|--------------|
A|-2~~~5~~~4~3~~|

d|-----0-----0-----0-----0-|
a|---0-----0-----0-----0---|
F|-0-----4-----3-----2-----|
C|-------------------------|	(Guitar2)
G|-------------------------|
D|-------------------------|
A|-------------------------|

Bridge2:(Guitar1 & Guitar2)
d|------------------|
a|------------------|
F|------------------|
C|------------------|
G|-4~~~7~~~6/7\6~5~~|
D|-4~~~7~~~6/7\6~5~~|
A|-2~~~5~~~4/5\4~3~~|

Bridge3:
d|-----------|
a|-----------|
F|-----------|
C|-----------|	(Guitar1)
G|-----------|
D|-5\4--4(4)-|
A|-5\4--4(4)-|

d|-----------|
a|-----------|
F|-----------|
C|-----------|	(Guitar2)
G|-5\4--4(4)-|
D|-5\4--4(4)-|
A|-5\4--4(4)-|

Bridge4:(Guitar1 & Guitar2 goes pretty fast, specially the slides)
d|------------------------------|
a|------------------------------|
F|------------------------------|
C|------------------------------|
G|------------------------------|
D|-(5)\4-0-0-0--0-4\3-00-3\2-00-|
A|-(5)\4-0-0-0--0-4\3-00-3\2-00-|

Chorus:
d|------------------------------|
a|------------------------------|
F|------------------------------|
C|------------------------------|	(Guitar1)
G|------------------------------|
D|-(5)\4-0-0-0--0-4\3-00-3\2-00-|
A|-(5)\4-0-0-0--0-4\3-00-3\2-00-|

d|-------------------------------------------------|
a|-------------------------------------------------|
F|-8888888899998899991111111111111111131313131414\\|
C|-xxxxxxxxxxxxxxxxxxxxxxxxxxxxxxxxxxxxxxxxxxxxxxxx|	(Guitar2)
G|-666666667777667777 9 9 9 9 9 9 9 9111111111212\\|
D|-------------------------------------------------|
A|-------------------------------------------------|

d|-------------------------------------------------|
a|-------------------------------------------------|
F|-8888888899998899991111111111111111131313131111\\|
C|-xxxxxxxxxxxxxxxxxxxxxxxxxxxxxxxxxxxxxxxxxxxxxxxx|	(Guitar2)
G|-666666667777667777 9 9 9 9 9 9 9 911111111 9 9\\|
D|-------------------------------------------------|
A|-------------------------------------------------|
Comments