Korn - Kill You Chords & Tabs

 

Kill You Chords & Tabs

Korn Chords & Tabs

Version: 4 Type: Tab 0 ratings
1 star 2 stars 3 stars 4 stars 5 stars
comments

Kill You Tab

   
                            Kill You
                             KoRn
                            by James D.
                      tuneing: A D G C F A D

     4X            Intro and Verse 1
|----------|----------------------------------|
|----------|----------------------------------|
|----------|------------0-0-0-----------------|
|--0-0-0-0-|------0-0-0-------0-0-0-----0-----|
|----------|4-4-4-------------------4-4---0---|
|----------|----------------------------------|
|----------|----------------------------------|
            Pre-Chorus
|--------------------------------------|
|--------------------------------------|
|--------------------------------------|
|------------------------4-------------|
|---5----------4---------4----3--------|
|---5----------4---------2----3--------|
|---3----------2--------------1--------|
     4X               Verse 2
|----------|----------------------------------|
|----------|----------------------------------|
|----------|------------0-0-0-----------------|
|--0-0-0-0-|------0-0-0-------0-0-0-----0-----|
|----------|4-4-4-------------------4-4---0---|
|----------|----------------------------------|
|----------|----------------------------------|
[ Tab from: http://www.guitartabs.cc/tabs/k/korn/kill_you_tab_ver_4.html ]
            Pre-Chorus
|--------------------------------------|
|--------------------------------------|
|--------------------------------------|
|------------------------4-------------|
|---5----------4---------4----3--------|
|---5----------4---------2----3--------|
|---3----------2--------------1--------|
          Chorus
|----------------------------------------------|
|----------------------------------------------|
|----------------------------------------------|
|----------4------------------4----------------|
|--5---6---4---3---4--5---6---4---3---4---5----|
|--5---6---2---3---4--5---6---2---3---4---5----|
|--3---4-------1---2--3---4-------1---2---3----|
        Bridge
|-----------17b------------------------18b-----|
|----------------------------------------------|
|----------------------------------------------|
|----------------------------------------------|
|----------------------------------------------|
|----------------------------------------------|
|--0----0--------0--0----0----0-0-0------------|
  |---pm-|                   |-pm--|

    4X
|----------|----------------------------------|
|----------|----------------------------------|
|----------|------------0-0-0-----------------|
|--0-0-0-0-|------0-0-0-------0-0-0-----0-----|1 and half X
|----------|4-4-4-------------------4-4---0---|
|----------|----------------------------------|
|----------|----------------------------------|

|----------------------------------------------|
|----------------------------------------------|
|----------------------------------------------|
|----------4------------------4----------------|4X
|--5---6---4---3---4--5---6---4---3---4---5----|
|--5---6---2---3---4--5---6---2---3---4---5----|
|--3---4-------1---2--3---4-------1---2---3----|

       Outro (bass arr. for guitar)
|------------------------------------------------|
|------------------------------------------------|
|------------------------------------------------|
|--------4---------------------4---5---------7---|Play till end
|------------5--4----------------------5p4-5-----|
|-------------------5----------------------------|
|----1------------------3---1--------------------|


KoRn
Comments