Korn - Justin Chords & Tabs

 

Justin Chords & Tabs

Korn Chords & Tabs

Version: 3 Type: Tab 0 ratings
1 star 2 stars 3 stars 4 stars 5 stars
comments

Justin Tab

   
#----------------------------------PLEASE NOTE---------------------------------#
#This file is the author's own work and represents their interpretation of the #
#song. You may only use this file for private study, scholarship, or research. #
#------------------------------------------------------------------------------##

                                     JUSTIN
                               As recorded by Korn
                     (From the 1998 Album FOLLOW THE LEADER)

Words by Jonathan Davis

Music by Brian Welch, David Silveria, Jonathan Davis, James Shaffer and Reginald Arvisu


          B5                   F#5                  F5
     0 2 x x x x x        7 9 x x x x x        6 8 x x x x x

Gtr I (A D G C F A D) - 'Head'
Gtr II (A D G C F A D) - 'Munky'
Gtr III (A D G C F A D) - 'Head Clean'

   Intro
    Moderately Slow Rock Q=92
    Bm
   4/4
    Gtr I
     S S S S  S S S S S S S S S S S S    S S S S  S S S S S S S S S S S S   6x
||------------------------------------|-------------------------------------||
||------------------------------------|-------------------------------------||
||o-----------------------------------|------------------------------------o||
||------------------------------------|-------------------------------------||
||o-----------------------------------|------------------------------------o||
||--10p7---7-10p7---------9p6-----9p6-|-10p7---7-10p7---------9p6-----9p6---||
||-------0----------0---0-------0-----|------0----------0---0-------0-------||


    Gtrs I, II
    e E S e S e E S e S   S S E S e S e E S S S S  4x
||----------------------|--------------------------||
||----------------------|--------------------------||
||o---------------------|-------------------------o||
||----------------------|--------------------------||
||o---------------------|-------------------------o||
||----------------------|--------------------------||
||--0-0---0-0-0-0---0-0-|-0-0-0---0-0-0-0---6-0-6--||


   Verse
    $
          ~~
     E    Q          A   S  S H
||-------19--------(19)s25s19-----------------|
||--------------------------------------------|
||o-------------------------------------------|
||--------------------------------------------|
||o-------------------------------------------|
||--------------------------------------------|
||--------------------------------------------|
|
|   Gtr II
|    PM----------------------------------------
|    S S  S S  S S       S  S S S S S S S S S
||--------------------------------------------|
||--------------------------------------------|
||o-------------------------------------------|
||--------------------------------------------|
||o-------------------------------------------|
||--10-7----7-10-7----------------9-6-----9-6-|
||--------0-----------------0---0-------0-----|


       Gtr III
                     \0.5
   E   E    E   E   +H                    4x
|---------------5---(5)-------------------||
|-----------3-----------------------------||
|------6---------------------------------o||
|-----------------------------------------||
|----------------------------------------o||
|-----------------------------------------||
|-----------------------------------------||
|
|-------------------------------------|
|  S S S S  S S S S  S    S S S S S S S   4x
|-----------------------------------------||
|-----------------------------------------||
|----------------------------------------o||
|-----------------------------------------||
|----------------------------------------o||
|-10-7---7-10-7-------------9-6-----9-6---||
|------0----------0-------0-------0-------||


   Chorus
    $$                                      D.S.
                                            D.S.
    Gtrs I, II
    e E S e S e E S e S   S S E S e S e E S S S S  4x
||----------------------|--------------------------||
||----------------------|--------------------------||
||o---------------------|-------------------------o||
||----------------------|--------------------------||
||o---------------------|-------------------------o||
||----------------------|--------------------------||
||--0-0---0-0-0-0---0-0-|-0-0-0---0-0-0-0---6-0-6--||


   Bridge
    Slower Q=52
    B5 F#5 F5                 B5F#5 F5
    Gtrs I, II
    Q  Q   Q    +S  S S S   E E Q   Q    +S  S S S
||------------------------|-------------------------||
||------------------------|-------------------------||
||o-----------------------|------------------------o||
||------------------------|-------------------------||
||o-----------------------|------------------------o||
||--2--9---8----(8)-------|---2-9---8----(8)--------||
||--0--7---6----(6)-7-0-7-|---0-7---6----(6)-7-0-7--||
|
|   Gtr III
|   Q  E Q   Q.             Q   E Q   Q.
||-------0---0------------|-------0---0-------------||
||-------0---0------------|-------0---0-------------||
||o------4---4------------|-------4---4------------o||
||-------2---2------------|-------2---2-------------||
||o-----------------------|------------------------o||
||------------------------|-------------------------||
||------------------------|-------------------------||

[ Tab from: http://www.guitartabs.cc/tabs/k/korn/justin_tab_ver_3.html ]
  Moderately Slow Rock Q=92
      Gtr I
       PM-----------------------------|
       S S S S  S S S S S S S S S S S S   3x
|-||--------------------------------------||
|-||--------------------------------------||
|-||o------------------------------------o||
|-||--------------------------------------||
|-||o------------------------------------o||
|-||--10p7---7-10p7---------9p6-----9p6---||
|-||-------0----------0---0-------0-------||
|
|      W                                  3x
|-||--------------------------------------||
|-||--------------------------------------||
|-||o------------------------------------o||
|-||--------------------------------------||
|-||o------------------------------------o||
|-||--------------------------------------||
|-||--------------------------------------||


   PM---------|   PM  PM--|
   S S S S  S S S S S S S S Q
|------------------------------|
|------------------------------|
|------------------------------|
|------------------------------|
|------------------------------|
|-10p7---7-10p7---------9p6----|
|------0----------0---0--------|


    Gtrs I, II
    e E S e S e E S e S   S S E S e S e E S S S S
||----------------------|--------------------------||
||----------------------|--------------------------||
||o---------------------|-------------------------o||
||----------------------|--------------------------||
||o---------------------|-------------------------o||
||----------------------|--------------------------||
||--0-0---0-0-0-0---0-0-|-0-0-0---0-0-0-0---6-0-6--||


   Interlude
                                       D.S.S. al Coda
    B5
    Gtr I
    S S E E.   a  S S S E Q    S S E E.   a  S S S E Q
||---------------------------|---------------------------||
||---------------------------|---------------------------||
||o-------4b7-(4)------------|-------4b7-(4)------------o||
||---------------------------|---------------------------||
||o--------------------------|--------------------------o||
||---------------------------|---------------------------||
||--0-0-0---------0-0-0-0----|-0-0-0---------0-0-0-0-----||
|
|   Gtr II
|   S S E E.      S S S E Q    S S E E.      S S S E Q
||---------------------------|---------------------------||
||---------------------------|---------------------------||
||o--------------------------|--------------------------o||
||---------------------------|---------------------------||
||o--------------------------|--------------------------o||
||--2-2-2---------2-2-2-2----|-2-2-2---------2-2-2-2-----||
||--0-0-0---------0-0-0-0----|-0-0-0---------0-0-0-0-----||


 Outro
  &
                          Gtr III
                                   \0.5
     ~~
  E  Q    A   S  S H      E E E E +H
|---19--(19)s25s19------|-------5-(5)------|
|-----------------------|-----3------------|
|-----------------------|---6--------------|
|-----------------------|------------------|
|-----------------------|------------------|
|-----------------------|------------------|
|-----------------------|------------------|


  Gtr I                        Gtr III
                                          \0.5
     ~~
  E  Q    A   S  S H            E E  E E +H
|---19--(19)s25s19-----------|---------5-(5)-----------|
|----------------------------|-------3-----------------|
|----------------------------|----6--------------------|
|----------------------------|-------------------------|
|----------------------------|-------------------------|
|----------------------------|-------------------------|
|----------------------------|-------------------------|
|
| Gtr II
| H                E  E E  E    E E  E Q        E E  E
|--------------------21---21-|-22---22---------21---21-|
|----------------------------|-------------------------|
|----------------------------|-------------------------|
|----------------------------|-------------------------|
|----------------------------|-------------------------|
|----------------------------|-------------------------|
|----------------------------|-------------------------|


                                    \0.5
     W                    E E  E E +H
||---------------------|---------5-(5)------------||
||---------------------|-------3------------------||
||o--------------------|----6--------------------o||
||---------------------|--------------------------||
||o--------------------|-------------------------o||
||---------------------|--------------------------||
||---------------------|--------------------------||
|
|    E E  E Q   E E  E    E E  E Q        E E  E
||--22---22----21---21-|-22---22---------21---21--||
||---------------------|--------------------------||
||o--------------------|-------------------------o||
||---------------------|--------------------------||
||o--------------------|-------------------------o||
||---------------------|--------------------------||
||---------------------|--------------------------||


Duration Legend
---------------
W - whole; H - half; Q - quarter; E - 8th; S - 16th; T - 32nd; X - 64th; a - acciaccatura
+ - note tied to previous; . - note dotted; .. - note double dotted
Uncapitalized letters represent notes that are staccato (1/2 duration)
Irregular groupings are notated above the duration line
Duration letters will always appear directly above the note/fret number it represents the
duration for.  Duration letters with no fret number below them represent rests.  Multi-
bar rests are notated in the form Wxn, where n is the number of bars to rest for.  Low
melody durations appear below the staff

Tablature Legend
----------------
 h   - hammer-on
 p   - pull-off
 b   - bend
 pb  - pre-bend
 r   - bend release (if no number after the r, then release immediately)
 /\  - slide into or out of (from/to "nowhere")
 s   - legato slide
 S   - shift slide
  - natural harmonic
[n]  - artificial harmonic
n(n) - tapped harmonic
 ~   - vibrato
 tr  - trill
 T   - tap
 TP  - trem. picking
 PM  - palm muting
\n/  - tremolo bar dip; n = amount to dip
 \n  - tremolo bar down
 n/  - tremolo bar up
/n\  - tremolo bar inverted dip
 =   - hold bend; also acts as connecting device for hammers/pulls
 <>  - volume swell (louder/softer)
 x   - on rhythm slash represents muted slash
 o   - on rhythm slash represents single note slash

Misc Legend
-----------
 |  - bar
||  - double bar
||o - repeat start
o|| - repeat end
*|  - double bar (ending)
 :  - bar (freetime)
 $  - Segno
 &  - Coda
Tempo markers -  = BPM(8/16=s8/s16), where s8 = swing 8ths, s16 = swing 16ths
Comments