Korn - Justin Chords & Tabs

 

Justin Chords & Tabs

Korn Chords & Tabs

Version: 2 Type: Tab 0 ratings
1 star 2 stars 3 stars 4 stars 5 stars
comments

Justin Tab

   
Band- Korn
Song- Justin
Album- Follow The Leader

Tuning: 7 String Standard A one step down (A D G C F A D)

Intro
|-------------------------------|
|-------------------------------|
|-------------------------------|
|-------------------------------|
|-------------------------------|
|-10p7----10p7------9p6----9p6--|
|------0-------0--0------0------| (repeat 7 Times)

 gtr.1&2
|-----------------------------------------------|
|-----------------------------------------------|
|-----------------------------------------------|
|-----------------------------------------------|
|-----------------------------------------------|
|-----------------------------------------------|
|--0-0--0--0-0-0--0--0-0-0-0--0--0-0-0--0-6-0-6-|(Repeat 3 Times) 

Verse

 gtr.1
|-------------------------------|
|-------------------------------|
|-------------------------------|
|-------------------------------|
|-------------------------------|
|-10p7-7--10p7-7--7-9p6--6-9p6--|
|-------------------------------|
|gtr.2 w/high octave pedal      |
|-21~/24\21---------------------|
|-------------------------------|
|-------------------------------|
|-------------------------------|
|-------------------------------|
|-------------------------------|
|-------------------------------|

 gtr.1
|-------------------------------|
|-------------------------------|
|-------------------------------|
|-------------------------------|
|-------------------------------|
|-10p7-7--10p7-7--7-9p6--6-9p6--|
|-------------------------------|
|gtr.2 w/echo                   |
|-------------------------------|
|----------11~------\10~--------|
|-------------------------------|
|-12~---------------------------|
|-------------------------------|
|-------------------------------|
|-------------------------------| (Repeat 2 Times)

Chorus

 gtr.1&2
|-----------------------------------------------|
|-----------------------------------------------|
|-----------------------------------------------|
|-----------------------------------------------|
|-----------------------------------------------|
|-----------------------------------------------|
|--0-0--0--0-0-0--0--0-0-0-0--0--0-0-0--0-6-0-6-|

Bridge
[ Tab from: http://www.guitartabs.cc/tabs/k/korn/justin_tab_ver_2.html ]
 gtr.1&2
|-----------------------------------------|
|-----------------------------------------|
|-----------------------------------------|
|---0-0~-------------0-0~-----------------|
|---0-0~-------------0-0~-----------------|
|---9-8~-------------9-8~-----------------|
|-0-7-6~--0-6-0-6--0-7-6~-0-6-0-6--0-0-0--| (Repeat 3 Times)

 gtr.1&2
|---------------------------------|
|---------------------------------|
|---------------------------------|
|---0-0~-------------0-0~---------|
|---0-0~-------------0-0~---------|
|---9-8~-------------9-8~---------|
|-0-7-6~--0-6-0-6--0-7-6~-0-6-0-6-| 

 gtr.1&2
|-----------------------------------------------|
|-----------------------------------------------|
|-----------------------------------------------|
|-----------------------------------------------|
|-----------------------------------------------|
|-----------------------------------------------|
|--0-0--0--0-0-0--0--0-0-0-0--0--0-0-0--0-6-0-6-|(Repeat again) 

 gtr.1&2
|-----------------------|
|--------0--------------|
|--------4hb^-----------|
|-----------------------|
|-----------------------|
|--------------------3--|
|-0-0-0-----0--0-0-0-1--|(Repeat 3 Times)
                     pm 


Outro

 gtr.1&2
|-----------------------------------------------|
|-----------------------------------------------|
|-----------------------------------------------|
|-----------------------------------------------|
|-----------------------------------------------|
|-----------------------------------------------|
|--0-0--0--0-0-0--0--0-0-0-0--0--0-0-0--0-6-0-6-|(Repeat 3 Times) 

 gtr.1
|-21~/24\21----------------------|
|---------------------11~--10~---|
|--------------------------------|
|---------------12~--------------|
|--------------------------------|
|--------------------------------|
|--------------------------------|

 gtr.1
|-21~/24\21-----------------------------------|
|--------------------------11~--10~-----------|
|---------------------------------------------|
|--------------------12~----------------------|
|---------------------------------------------|
|---------------------------------------------|
|---------------------------------------------|
|gtr.2                                        |
|------------24\16/23-16-16-23\16/24-16-23\16-|
|---------------------------------------------|
|---------------------------------------------|
|---------------------------------------------|
|---------------------------------------------|
|---------------------------------------------|
|---------------------------------------------|
Comments