Korn - Justin Chords & Tabs

 

Justin Chords & Tabs

Korn Chords & Tabs

Version: 3 Type: Bass Tab 0 ratings
1 star 2 stars 3 stars 4 stars 5 stars
comments

Justin Bass Tab

   
#----------------------------------PLEASE NOTE---------------------------------#
#This file is the author's own work and represents their interpretation of the #
#song. You may only use this file for private study, scholarship, or research. #
#------------------------------------------------------------------------------##

                                JUSTIN (Bassline)
                               As recorded by Korn
                     (From the 1998 Album FOLLOW THE LEADER)

Words by Jonathan Davis

Music by Brian Welch, David Silveria, Jonathan Davis, James Shaffer and Reginald Arvisu


Gtr I (A D G C F) - 'Fieldy Finger'
Gtr II (A D G C F) - 'Fieldy Slap'

 Intro
  Moderately Slow Rock Q=92
 4/4
  Gtr I
  Wx4
|--------|
|--------|
|--------|
|--------|
|--------|


  E E. E. Q  Q    +E  E. E. Q  S S E   +E  E. E. Q  Q    +E  E. E. E S S S S E
|---------------|--------------------|-----------------|-----------------4h5---|
|------------6--|-(6)----------6h7p6-|-(6)----------6--|-(6)---------5h6-------|
|---5--5--4-----|-----5--5--4--------|-----5--5--4-----|-----5--5--4-----------|
|---------------|--------------------|-----------------|---------------------0-|
|---------------|--------------------|-----------------|-----------------------|


  E E. E. Q  Q    +E  E. E. E S S S S  S S   E E. E. Q  Q    +E  E. E. Q  Q
|---------------|-----------------4h5-10p9-|---------------|-----------------|
|------------6--|-(6)---------5h6----------|------------6--|-(6)----------6--|
|---5--5--4-----|-----5--5--4--------------|---5--5--4-----|-----5--5--4-----|
|---------------|--------------------------|---------------|-----------------|
|---------------|--------------------------|---------------|-----------------|


    Gtrs I, II
    e E S e S e E S e S   S S E S e S e E S S S S  4x
||----------------------|--------------------------||
||o---------------------|-------------------------o||
||----------------------|--------------------------||
||o---------------------|-------------------------o||
||--0-0---0-0-0-0---0-0-|-0-0-0---0-0-0-0---6-0-6--||


 1st Verse
  Gtr I
  E E. E. Q  Q    +E  E. E. Q  Q    +E  E. E. Q  Q    +E  E. E. E S S S S E
|---------------|-----------------|-----------------|-----------------4h5---|
|------------6--|-(6)----------6--|-(6)----------6--|-(6)---------5h6-------|
|---5--5--4-----|-----5--5--4-----|-----5--5--4-----|-----5--5--4-----------|
|---------------|-----------------|-----------------|---------------------0-|
|---------------|-----------------|-----------------|-----------------------|


  E E. E. Q  Q    +E  E. E. Q  S S E   +E  E. E. Q  Q    +E  E. E. Q  Q
|---------------|--------------------|-----------------|------------------|
|------------6--|-(6)----------6h7p6-|-(6)----------6--|-(6)--------------|
|---5--5--4-----|-----5--5--4--------|-----5--5--4-----|-----5--5--4------|
|---------------|--------------------|-----------------|--------------4---|
|---------------|--------------------|-----------------|------------------|


   Chorus
    $                                    To Coda
    $$                                   To Coda
    Gtrs I, II
    e E S e S e E S e S   S S E S e S e E S S S S  4x
||----------------------|--------------------------||
||o---------------------|-------------------------o||
||----------------------|--------------------------||
||o---------------------|-------------------------o||
||--0-0---0-0-0-0---0-0-|-0-0-0---0-0-0-0---6-0-6--||


 2nd Verse
  Gtr I
  Wx4
|--------|
|--------|
|--------|
|--------|
|--------|

[ Tab from: http://www.guitartabs.cc/tabs/k/korn/justin_btab_ver_3.html ]
                                                         D.S. al Coda
  E E. E. Q  Q    +E  E. E. Q  Q      +E  E. E. Q  Q    +E  E. E. Q  Q
|---------------|-------------------|-----------------|-----------------|
|---------------|-------------------|-----------------|-----------------|
|---------------|-------------------|-----------------|-----------------|
|------------4--|-(4)----------4b5--|-(4)----------4--|-(4)----------4--|
|---3--3--2-----|-----3--3--2-------|-----3--3--2-----|-----3--3--2-----|


   Bridge
    Slower Q=52                                  Moderately Slow Rock Q=92
    &
    Gtrs I, II
    Q  Q  Q  +S  S S S   E E Q  Q  +S  S S S      Wx4
||---------------------|----------------------||---------|
||o--------------------|---------------------o||---------|
||---------------------|----------------------||---------|
||o--------------------|---------------------o||---------|
||--0--7--6--(6)-7-0-7-|---0-7--6--(6)-7-0-7--||---------|


    e E S e S e E S e S   S S E S e S e E S S S S
||----------------------|--------------------------||
||o---------------------|-------------------------o||
||----------------------|--------------------------||
||o---------------------|-------------------------o||
||--0-0---0-0-0-0---0-0-|-0-0-0---0-0-0-0---6-0-6--||


   Interlude
                        D.S.S. al Dbl. Coda
                     Gtr IGtrs I, II       Gtr I
    S S E E. S S S E Q    S S E E. S S S E Q
||----------------------|----------------------||
||o---------------------|---------------------o||
||----------------------|----------------------||
||o---------------------|---------------------o||
||--0-0-0----0-0-0-0-1--|-0-0-0----0-0-0-0-1---||


 Outro
  &&
  E E. E. Q  Q      +E  E. E. Q  S S E
|-----------------|--------------------|
|------------6b7r=|=(6)----------4h5h6-|
|---5--5--4-------|-----5--5--4--------|
|-----------------|--------------------|
|-----------------|--------------------|


  +E  e. e. Q  Q    +E  e. e. E S S S S S S
|-----------------|-----------------4h5------|
|-(6)----------6--|-(6)---------5h6-----6p5--|
|-----5--5--4-----|-----5--5--4--------------|
|-----------------|--------------------------|
|-----------------|--------------------------|


  E E. E. Q  Q    +E  E. E. Q  S S E   E E. E. Q  Q    E E. E. Q  Q
|---------------|--------------------|---------------|----------------*|
|---------------|--------------------|---------------|----------------*|
|---------------|--------------------|---------------|----------------*|
|------------4--|-(4)----------2h3h4-|------------4--|------------4---*|
|---3--3--2-----|-----3--3--2--------|---3--3--2-----|---3--3--2------*|


Duration Legend
---------------
W - whole; H - half; Q - quarter; E - 8th; S - 16th; T - 32nd; X - 64th; a - acciaccatura
+ - note tied to previous; . - note dotted; .. - note double dotted
Uncapitalized letters represent notes that are staccato (1/2 duration)
Irregular groupings are notated above the duration line
Duration letters will always appear directly above the note/fret number it represents the
duration for.  Duration letters with no fret number below them represent rests.  Multi-
bar rests are notated in the form Wxn, where n is the number of bars to rest for.  Low
melody durations appear below the staff

Tablature Legend
----------------
 h   - hammer-on
 p   - pull-off
 b   - bend
 pb  - pre-bend
 r   - bend release (if no number after the r, then release immediately)
 /\  - slide into or out of (from/to "nowhere")
 s   - legato slide
 S   - shift slide
  - natural harmonic
[n]  - artificial harmonic
n(n) - tapped harmonic
 ~   - vibrato
 tr  - trill
 T   - tap
 TP  - trem. picking
 PM  - palm muting
\n/  - tremolo bar dip; n = amount to dip
 \n  - tremolo bar down
 n/  - tremolo bar up
/n\  - tremolo bar inverted dip
 =   - hold bend; also acts as connecting device for hammers/pulls
 <>  - volume swell (louder/softer)
 x   - on rhythm slash represents muted slash
 o   - on rhythm slash represents single note slash

Misc Legend
-----------
 |  - bar
||  - double bar
||o - repeat start
o|| - repeat end
*|  - double bar (ending)
 :  - bar (freetime)
 $  - Segno
 &  - Coda
Tempo markers -  = BPM(8/16=s8/s16), where s8 = swing 8ths, s16 = swing 16ths
Comments