Korn - Its On Chords & Tabs

 

Its On Chords & Tabs

Korn Chords & Tabs

Version: 1 Type: Tab 0 ratings
1 star 2 stars 3 stars 4 stars 5 stars
comments

Its On Tab

Artist: Korn
Song: Its On! 
Another bad-ass Korn song with damn near no transcriptions
Tuning: Usual ADGCFAD.

Intro/Verse Gtr1
P.M. throughout
Low
D---8-7---7---
A-0-----0---0-
Intro/Verse Gtr2 (w/flanger or phaser or something like that on high speed
D----------------12-
A-12---------13-----
F-----12--11--------
Before main riff:
A--12-------12---------
F-----10--9-----12--11-
[ Tab from: http://www.guitartabs.cc/tabs/k/korn/its_on_tab.html ]
Main Riff Gtr 1
                             Gtrs 1 & 2 every fourth time
G---3-2---2-----3-2---2---3- G---3-2---2-----3-2---2---3- 
D-------------------------3- D-------------------------3- 
A-0-----0---0-0-----0---0--- A-0-----0---0-0-----0---0-1- 

Main Riff Gtr 2
~~~~=vibrato
A-------------------------12~~~~
F-------------------------12~~~~
C-------------------------------
G-------------------------------
D---8-7---7-----8-7---7---------
A-0-----0---0-0-----0---0-------

Chorus Gtr 1

G-------6----3--2---------6----3--2-
D-/7-6--0----3--2---/6-7--x----3--2-
A------------1--0---------6----1--0-

Chorus Gtr 2

D-7--7--5--5---7/8--5-8--
A-x--x--x--x---x-x--x-x--
F-4--4--2--2---4/5--2-5--

Interlude

F---5-4---4-----5-4----4-5~~~~
C-----------------------------
G-2-----2---2-2-----2---------

There you have it.




Comments