Korn - Im Done Chords & Tabs

 

Im Done Chords & Tabs

Korn Chords & Tabs

Version: 3 Type: Tab 0 ratings
1 star 2 stars 3 stars 4 stars 5 stars
comments

Im Done Tab

KORN
<>
I'm done                             
                                   tab provided by xie zhongcé
                                   mail: koumachi3000@yahoo.fr

Intro

e|-----------------------------------------------------|
B|-----------------------------------------------------|
G|-----7------0---8------------------------------------|
D|--5-------------------7------------------------------|
A|--------------------------7--8-----------------------|
E|-----------------------------------------------------|
 

e|------------|
B|------------|
G|------------|
D|------------|
A|2-x2x2------|
E|2-x2x2------|


Riff

e|---------------|
B|---------------|
G|---------------|
D|---------------|
A|-2-x2x2--2-5---|
E|-2-x2x2--2-5---|



                  We are the pain
                  We are the shame
                  We've gone insane
                  Inside where no ones around

                  I am to blame, for everything
                  I like this game, that you all
                  make me play
[ Tab from: http://www.guitartabs.cc/tabs/k/korn/im_done_tab_ver_3.html ]
                  I'm done being there for others
                  They have their pain and so do I
                  Don't need to feel it all over
                  I try to hold on and you bring me down

                  We are estranged
                  We are deranged
                  I can't explain
                  How you all break me apart

                  I am to blame, for everything
                  I like this game, that you all
                  make me play

                  I'm done being there for others
                  They have their pain and so do I
                  Don't need to feel it all over
                  I try to hold on and you bring me down

                  We wait, we hate
                  We try to get away
                  Mistake my pain
                  It has been lead astray
                  I'm Looking around, I drop to the ground
                  Why does it have to end this way

                  Feeling numb, so long
                  Oh God it's just everyday
                  It's everything
                  Now I pray for all of them to go away! 

                  I'm done being there for others
                  They have their pain and so do I
                  Don't need to feel it all over
                  I try to hold on and you bring me down


'_' : happy new year !!!
Comments