Korn - Im Done Chords & Tabs

 

Im Done Chords & Tabs

Korn Chords & Tabs

Version: 2 Type: Tab 0 ratings
1 star 2 stars 3 stars 4 stars 5 stars
comments

Im Done Tab

----------------------------------------------------------------------------
                             KoRn - Im Done
----------------------------------------------------------------------------

artist: KoRn
song: im done
album: take a look in the mirror
tabbed by: Cesar

~ = let the note ring
/ = slide 
H = hammer on

tuning: standard (E B G D A E) i use a 6 string gtr because i don't have
a 7 string gtr, this RULES!!!

intro (guitar 1) 
E|----12---13---11---11--------------12---13----11---11-------|
B|-11----12---12---12--12-11------11---12----12---12----------|
G|------------------------------------------------------------|
D|------------------------------------------------------------|
A|------------------------------------------------------------|
E|------------------------------------------------------------|

intro (guitar 2) silently, distorted
E|-------------------------------------------------------------|
B|-------------------------------------------------------------|
G|---------8/9--5~~------7/8--6~~------7/8--5~~------(7)-5~~---|
D|-----4---7/8--4~~------6/7--5~~------6/7--4~~------(6)-4~~---|
A|-2-2-4---5/6--3~~------5/6--3~~------5/6--3~~------(5)-3~~---|
E|-------------------------------------------------------------|
intro, distorted, (GTR 1 & 2)
E|-----------------|-----------play this all 2x-------------|
B|-----------------|----------------------------------------|
G|..play this 1x..-|--..play this 3x..--..play this 1x..----|
D|--5--5-5--5-5----|--5--5-5--5-5-5/8----5--5-5--5-5-5\3----|
A|--5--5-5--5-5----|--5--5-5--5-5-5/8----5--5-5--5-5-5\3----|
E|--3--3-3--3-3----|--3--3-3--3-3-3/6----3--3-3--3-3-3\1----|

verse, (gtr 1)
E|----12---13---11---11--------------12---13----11---11-----|
B|-11----12---12---12--12-11------11---12----12---12--------|
G|----------------------------------------------------------|
D|----------------------------------------------------------|
A|----------------------------------------------------------|
E|----------------------------------------------------------|
[ Tab from: http://www.guitartabs.cc/tabs/k/korn/im_done_tab_ver_2.html ]
verse, (gtr 2) play this all 2x
E|-----------------------------------------------------------------------|
B|-----------------------------------------------------------------------|
G|-----------------------------------------------------------------------|
D|-----------------------------------------------------------------------|
A|-3--3-3--3-3h5/7---3--3-3-3--3h5/7---3-3--3-3-3h5/7---3-3--3-3-3h5\1---|
E|-----------------------------------------------------------------------|

chorus,(gtr 1) im not sure about this
E|-99999999999-77777777-6666-3333---------|
B|-xxxxxxxxxxx-xxxxxxxx-xxxx-xxxx---------|
G|-77777777777-55555555-4444-1111---------|
D|----------------------------------------|
A|----------------------------------------|
E|----------------------------------------|

chorus (gtr 2)
E|--------------------------------------------------------------|
B|--------------------------------------------------------------|
G|--------------------------------------------------------------|
D|-5--5-5--5-5--7~~--5--5-5--5-5-5/7/6/5---5-5--5-5-4-3---------|
A|-5--5-5--5-5--7~~--5--5-5--5-5-5/7/6/5---5-5--5-5-4-3---------|
E|-3--3-3--3-3--5~~--3--3-3--3-3-3/5/4/3---3-3--3-3-2-1---------|


bridge,2x,this is not the gtr its that other thing,i forgot whats it called
E|----------------------|----------------------------|
B|-10--13--8--7--10-----|--10--13--8--12-7--8--6-----|
G|------------------11--|----------------------------|
D|----------------------|----------------------------|
A|----------------------|----------------------------|
E|----------------------|----------------------------|

bridge, palm mute, about 4x, starting at 2:09 of the song 
E|-------------------------|
B|-------------------------|
G|-------------------------|
D|-------------------------|
A|-------------------------|
E|-2-22-22---22---2-22-23--|

bridge, start at 2:30 of the song
E|-----------------------------------|
B|-----------------------------------|
G|-5555-7777-888-101010-1313-1212----|
D|-xxxx-xxxx-xxx--x-x-x--x-x--x-x----|
A|-3333-5555-666--8-8-8-1111-1010----|
E|-----------------------------------|

bridge, start at 2:48 of the song
E|--------------|
B|--------------|
G|--------------|
D|-5--5-5--5-5--|
A|-5--5-5--5-5--|
E|-3--3-3--3-3--|
   
thats all i know
Comments