Korn - Im Done Chords & Tabs

 

Im Done Chords & Tabs

Korn Chords & Tabs

Version: 1 Type: Tab 0 ratings
1 star 2 stars 3 stars 4 stars 5 stars
comments

Im Done Tab

Im Done- talitm
Korn

Inro/ Verse:
d--------17-------18-------13----15----------------
a--15-------15--------15------13----13--15---------
f--------------------------------------------------
c--------------------------------------------------  Echo clean
g--------------------------------------------------
d--------------------------------------------------
a--------------------------------------------------

Riff:
d-------------------------------------------------------
a-------------------------------------------------------
f-------------------------------------------------------
c-------------------------------------------------------
g--5---5-5---5-5---5---9/5---5---5-5---5-5---5---6/5----
d--5---5-5---5-5---5---9/5---5---5-5---5-5---5---6/5----
a--3---3-3---3-3---3---7/3---3---3-3---3-3---3---4/3----

Chorus:
d------------------------------------------------------------------
a------------------------------------------------------------------
f------------------------------------------------------------------
c------------------------------------------------------------------
g--2-2-2-2-2-2-2-2-4-4-4-4-4-4-4-4-2-2-2-2-2-2-2-2-3-3-3-3-4-4-4-4-
d--2-2-2-2-2-2-2-2-4-4-4-4-4-4-4-4-2-2-2-2-2-2-2-2-3-3-3-3-4-4-4-4-
a--0-0-0-0-0-0-0-0-2-2-2-2-2-2-2-2-0-0-0-0-0-0-0-0-1-1-1-1-2-2-2-2-

Soft Bridge:
d--7-------11--5--------12--3------------
a-------------------------------4----3---
f----------------------------------------
c----------------------------------------
g----------------------------------------
d----------------------------------------
a----------------------------------------
[ Tab from: http://www.guitartabs.cc/tabs/k/korn/im_done_tab.html ]
Heavy Bridge #1:
d------------------------------------------------------------------------------------------------------------------
a------------------------------------------------------------------------------------------------------------------
f------------------------------------------------------------------------------------------------------------------
c------------------------------------------------------------------------------------------------------------------
g------------------------------------------------------------------------------------------------------------------
d--7-7-7-7-7-7-7-7-7-7-7-7-7-7-7-7-9-9-9-9-9-9-9-9-9-9-9-9-9-9-9-9-10-10-10-10-10-10-10-10-15-15-15-15-14-14-14-14-
a------------------------------------------------------------------------------------------------------------------

Heavy Bridge #2:
d---------------------------------------------------------------------------------
a---------------------------------------------------------------------------------
f---------------------------------------------------------------------------------
c---------------------------------------------------------------------------------
g---------------------------------------------------------------------------------
d--2---2-2--2-2------4---4-4--4-4-------5---5-5---5-5-----15-15-15-15-14-14-14-14-
a--0---0-0--0-0------2---2-2--2-2-------3---3-3---3-3-----------------------------

End Riff:
d---------------------------------
a---------------------------------
f---------------------------------
c---------------------------------
g--2---2-2---2-2---2-5/2----------
d--2---2-2---2-2---2-5/2----------
a--0---0-0---0-0---0-3/0----------




Comments