Korn - Hypocrites Chords & Tabs

 

Hypocrites Chords & Tabs

Korn Chords & Tabs

Version: 1 Type: Tab 1 rating
1 star 2 stars 3 stars 4 stars 5 stars
comments

Hypocrites Tab

   
Artist: Korn
Title: Hypocrites
Album: See You on the Other Side
Tabber: iAmVincent

Here it is, Hypocrites from Korn's upcoming album See You on the Other Side.  Korn uses 7-string guitars tuned down a whole
step, but if you aren't fortunate enough to own a 7-string you can just downtune to Drop D down a full step and use this tab
as a guideline for figuring out the song.  I'm pretty sure this tab isn't 200% accurate, but it should definitely get you
going in the right direction.

Intro A
d|---------------------------------------------------------------------------------------------------------------------|
a|---------------------------------------------------------------------------------------------------------------------|
F|---------------------------------------------------------------------------------------------------------------------|
C|----2--0-0-0-2-3-3-3-0-0-0-5-----2--0-0-0-2-3-3-3-0-0-0-0-0----2--0-0-0-2-3-3-3-0-0-0-5-----2--0-0-0-2-1-1-1-3-3-3-5-|
G|---------------------------------------------------------------------------------------------------------------------|
D|-0----------------------------0-----------------------------0----------------------------0---------------------------|
A|---------------------------------------------------------------------------------------------------------------------|
   PM.................................................................................................................
[ Tab from: http://www.guitartabs.cc/tabs/k/korn/hypocrites_tab.html ]
Intro B
d|---------------------------------------------------------------------------------------------------------------------|
a|---------------------------------------------------------------------------------------------------------------------|
F|---------------------------------------------------------------------------------------------------------------------|
C|----2--0-0-0-2-3-3-3-0-0-0-5-5----2--0-0-0-2-5-5-5-3-3-3-1-----2--0-0-0-2-3-3-3-0-0-0-5-----2--0-0-0-2-1-1-1-3-3-3-5-|
G|---------------------------------------------------------------------------------------------------------------------|
D|-0-----------------------------0----------------------------0----------------------------0---------------------------|
A|---------------------------------------------------------------------------------------------------------------------|
   PM.................................................................................................................

Verse A/Chorus/Outro
d|--------------------------------------------------------------------------------------|---------------------------|
a|--------------------------------------------------------------------------------------|---------------------------|
F|--------------------------------------------------------------------------------------|---------------------------|
C|-------------------------5---------------------------------------------------------5--|---------------------------|
G|-7--7--5/7-7-x-8-8--6-6--5---7--7--5/7-7-x-10-10--8-8--6---7--7--5/7-7-x-8-8--6-6--5--|--7--5/7-7-x-6-6--8-8--10--|
D|-7--7--5/7-7-x-8-8--6-6--3---7--7--5/7-7-x-10-10--8-8--6---7--7--5/7-7-x-8-8--6-6--3--|--7--5/7-7-x-6-6--6-6--8---|
A|-5--5--3/5-5-x-6-6--4-4------5--5--3/5-5-x-8--8---6-6--4---5--5--3/5-5-x-6-6--4-4-----|--5--3/5-5-x-4-4--6-6--8---|
                                                                                           ^^^^^^^^^^^^^^^^^^^^^^
                                                                                        Don't play during the Chorus

Verse B
d|-------------------------|---|
a|-------------------------|---|
F|-------------------------|---|
C|-------------------------|---|
G|-7--7-8-7-6-7--7-8-7-6-7-|-7-|
D|-7--7-8-7-6-7--7-8-7-6-7-|-7-|
A|-5--5-6-5-4-5--5-6-5-4-5-|-5-|
                             ^
                  Don't play the last time

Pre-Chorus/Bridge
d|--------------|-----------|----|
a|--------------|-----------|----|
F|--------------|-----------|----|
C|----8h9p8p7---|-8h9p8p7---|----|
G|-7----------7-|---------7-|-10-|
D|-7----------7-|---------7-|-10-|
A|-5----------5-|---------5-|-8--|
                  ^^^^^^^^^^^^^
    Don't play the last time during the Bridge
                              ^
        Don't play the last time during the Pre-Chorus
                              
SONG ORDER
Intro A
Intro B
Intro A
Verse A x2
Verse B x8
Pre-Chorus x4
Chorus
Verse A x2
Verse B x8
Pre-Chorus x4
Chorus
Verse A
Bridge x8
Outro x2

If you have any questions about the tab you can email me at iAmVincent2@yahoo.com or message iAmVincent2 on AIM.
Comments