Korn - Here To Stay Chords & Tabs

 

Here To Stay Chords & Tabs

Korn Chords & Tabs

Version: 8 Type: Tab 0 ratings
1 star 2 stars 3 stars 4 stars 5 stars
comments

Here To Stay Tab

Korn - Here to Stay
 Tuning: 7 String tuned down one step)

MAIN RIFF
D|---------------------|
A|---------------------|
F|---------------------|
C|---------------------|
G|-2--3----5-4---4-5-7-|
D|-2--3----5-4---4-5-7-|
A|-0--1--0-3-2-0-2-3-5-|
[ Tab from: http://www.guitartabs.cc/tabs/k/korn/here_to_stay_tab_ver_8.html ]
VERSE (Part One)
D|------------------------|
A|------------------------|
F|------------------------|
C|------------------------|
G|-7--8--7-10-9-7-9-10-12-|
D|-7--8--7-10-9-7-9-10-12-|
A|-5--6--5--8-7-5-7--8-10-|


Just the intro for now, I never tab songs but this riff 
sounded sweet so I tabbed it cuz there weren't any out there.

Cheers

fade2sanitarium@hotmail.com
Comments