Korn - Here To Stay Chords & Tabs

 

Here To Stay Chords & Tabs

Korn Chords & Tabs

Version: 6 Type: Tab 2 ratings
1 star 2 stars 3 stars 4 stars 5 stars
comments

Here To Stay Tab

   
KoRn
Here To Stay
                        
Intro:                                   x3
B------------------------------------------|----------------------------------|
G------------------------------------------|----------------------------------|
D------------------------------------------|----------------------------------|
A------------------------------------------|----------------------------------|
E------------------------------------------|----------------------------------|
B---0-----1-----0---3---1---0---0---1---2--|---0-----1-----0---3---1---0---0--|

Intro/drums: 0:10                        x8
E------------------------------------------|---------------------------------|
G------------------------------------------|---------------------------------|
D------------------------------------------|---------------------------------|
A------------------------------------------|-----------------------------2---|
E------------------------------------------|---0----1----0--3--1--0-0-1------|
B---0-----1-----0---3---1---0---0---1---2--|---------------------------------|

E---------------------------------|
G---------------------------------|
D---------------------------------|
A-----------------------------1---|
E---0----1----0---3-1-0-0-1-------|
B---------------------------------|

Verse: 0:38
B-----------------------------|-----------------------------|
G-----------------------------|-----------------------------|
D-----------------------------|-----------------------------|
A--------------------------2--|--------------------------1--|
E---0----1----0-3-1-0-0-1-----|---0----1----0-3-1-0-0-1-----|
B-----------------------------|-----------------------------|

Pre-chorus: 0:57
B---------------------------|--------------------------|------------------------|
G---------------------------|--------------------------|------------------------|
D---------------------------|--------------------------|------------------------|
A---------------------------|--------------------------|------------------------|
E---3-----------------------|---3----------------------|---3--------------------|
B------2---0-2-3-0-0-2-2-0--|-----2-2-0-2-3-0-0-2-2-0--|-----2-0-2-3-0-0-2-2-0--|
Some fast accurate picking is required here.

B-------------------------|
G-------------------------|
D-------------------------|
A-------------------------|
E---3---------------------|
B------2-2-0-2-3---0---2--|


Chorus: 1:07
    B5       D5     G5   D5   E5   C5     B5      D5     G5   D5   E5   C5
B---------------|---------------------|--------------|---------------------|
G---------------|---------------------|--------------|---------------------|
D---------------|---5---------2-------|--------------|---5---------2-------|
A---2--------5--|---5----5----2----3--|---2-------5--|---5----5----2----3--|
E---2--------5--|---3----5----0----3--|---2-------5--|---3----5----0----3--|
B---0--------3--|--------3---------1--|---0-------3--|--------3---------1--|
These are straightforward powerchords but avoid any sliding sound from your fingers when changing positions.
  
Middle 8: 2:14
B----------------------------|--------------------------------|
G-------16-----------14------|-------19-----------21------23--|
D----------------------------|--------------------------------|
A---14------14---12------12--|---17------17---19------21------|
E----------------------------|--------------------------------|
B----------------------------|--------------------------------|
[ Tab from: http://www.guitartabs.cc/tabs/k/korn/here_to_stay_tab_ver_6.html ]
B----------------------------|---------------------------------|
G-------16-----------14------|---14----------11------12-----9--|
D----------------------------|---------------------------------|
A---14------14---12------12--|-------14---9------10------7-----|
E----------------------------|---------------------------------|
B----------------------------|---------------------------------|

B-------------------------------|--------------------------------|
G-------16------16------16------|-------19-----------21------23--|
D-------------------------------|--------------------------------|
A---14------14------14------14--|---17------17---19------21------|
E-------------------------------|--------------------------------|
B-------------------------------|--------------------------------|

B----------------------------|-----------------------------------|
G-------16-----------14------|-------14------19------19------21--|
D----------------------------|-----------------------------------|
A---14------14---12------12--|---12------17------17------19------|
E----------------------------|-----------------------------------|
B----------------------------|-----------------------------------|

Breakdown riff: 2:33

B---------------------------------|-------------------------------|
G---------------------------------|-------------------------------|
D---------------------------------|-------------------------------|
A---------------------------------|-------------------------------|
E---------------------------------|-------------------------------|
B---0-----0-----12---0---0-0-0-0--|---0-----0-----12---0---0-0-0--|


'Mosh' section: 2:53
B-----------------------------------------------|
G-----------------------------------------------|
D-----------------------------------------------|
A-----------------------------------------------|
E-----------------------------------------------|
B---0-----0-----12---0---0-0-0-0---12h13h14h15--|

B------------------------------------------|
G------------------------------------------|
D------------------------------------------|
A------------------------------------------|
E------------------------------------------|
B---0-----0-----12---0---0-0-0---12h13h14--|

Outro: 4:05

With flanger + pitch shifter (8ve)
B------------------------------------------------------|
G---16-16-16-16-16-16-16-16-16-16-16-16---17-17-17-17--|
D------------------------------------------------------|
A---14-14-14-14-14-14-14-14-14-14-14-14---15-15-15-15--|
E------------------------------------------------------|
B------------------------------------------------------|

B----------------------------------------|
G---16-16-16-16-16-16-16-16-16-16-16-16--|with bar up
D----------------------------------------|
A---14-14-14-14-14-14-14-14-14-14-14-14--|with bar up
E----------------------------------------|
B----------------------------------------|


B----------------------------------------|
G---16-16-16-16-16-16-16-16-16-16-16-16--|with bar down
D----------------------------------------|
A---14-14-14-14-14-14-14-14-14-14-14-14--|with bar down
E----------------------------------------|
B----------------------------------------|
Set the flanger fairly deep with a decent amount of feedback at the quaver speed 
for the ethereal KoRn sound.

Tabbed by: Paolo "honey" Quintana
For suggestions, request and barter of guitar transcription, don't hesitate
to email me at paolo_keno@yahoo.com. This tabbed song is dedicated to my guitar god friends, Sherlock Codilla and Melchor Durante. 




 
























Comments