Korn - Here To Stay Chords & Tabs

 

Here To Stay Chords & Tabs

Korn Chords & Tabs

Version: 5 Type: Tab 2 ratings
1 star 2 stars 3 stars 4 stars 5 stars
comments

Here To Stay Tab

Song: Here to Stay
Band: KoRn
Album: Untouchables
Tabbed by: David Rojas

Played on a 7 string guitar but here's the tuning for a 6 string.
Tuning: E string - tune it to a standard tuned bass guitar 3rd/A string
        A string - tune to the 7th fret on the E string.
        D,G,B & E strings are tuned from the A string.

Intro: 4x
A-----------------------3-| Note: On the 4th time don't 
E-0---1---2-3-2-1-2-1-0---| play the last note in the riff
[ Tab from: http://www.guitartabs.cc/tabs/k/korn/here_to_stay_tab_ver_5.html ]
Verse 1: 8x
A-------------------------|
E-0---1---2-3-2-1-2-1-0-2-|

Verse 2: 12 x
A-----------------------5-|-----------------------4-|
E-5---6---7-8-7-6-7-6-5---|-5---6---7-8-7-6-7-6-5---|

Bridge: 4x
A-1-------------------| on the bridge, the first 2 notes are played
E----2--2-3-2-1-2-1-2-| a bit faster

Chorus: 4x
A--------1----------|
E-0---3-----3--5--1-|

2nd Bridge and Outro: Palm Muted.
A------5--------|------5---------|
E-0--0---0-0000-|-0--0---0---000-|

That's all the parts of the song. piece it together.
any comments or corrections can be sent to: kahunaka@hotmail.com.
Comments