Korn - Here To Stay Chords & Tabs

 

Here To Stay Chords & Tabs

Korn Chords & Tabs

Version: 4 Type: Tab 2 ratings
1 star 2 stars 3 stars 4 stars 5 stars
comments

Here To Stay Tab

Here to Stay
Band:KoRn
Album:The Untouchables (The New Album)
Tuning:7 String:ADGCFAD  6 String:ADGFAD 
(Note:The C string isnt used in the song)

Intro  with heavy Distortion

    8x
D-------------------------------------------------------------------|
A-------------------------------------------------------------------|
F-------------------------------------------------------------------|
C-------------------------------------------------------------------|
G---0-1-0/1-0/1-0/1-2--0-1-0/1-0/1-0/1-1----------------------------|
D---0-1-0/1-0/1-0/1-2--0-1-0/1-0/1-0/1-1----------------------------|
A---0-1-0/1-0/1-0/1-2--0-1-0/1-0/1-0/1-1----------------------------|


Intro2 With Heavy Distortion
      8x

D-------------------------------------------------------------------|
A-------------------------------------------------------------------|
F-------------------------------------------------------------------|
C-------------------------------------------------------------------|
G---2-3-2/3-2/3-2/3-7--2-3-2/3-2/3-2/3-6----------------------------|
D---2-3-2/3-2/3-2/3-7--2-3-2/3-2/3-2/3-6----------------------------|
A---0-1-0/1-0/1-0/1-5--0-1-0/1-0/1-0/1-4----------------------------|

Verse     (8x before singing)

D-------------------------------------------------------------------|
A-------------------------------------------------------------------|
F-------------------------------------------------------------------|
C---2-3-2/3-2/3-2/3-7--2-3-2/3-2/3-2/3-6----------------------------|
G---2-3-2/3-2/3-2/3-7--2-3-2/3-2/3-2/3-6----------------------------|
D---0-1-0/1-0/1-0/1-5--0-1-0/1-0/1-0/1-4----------------------------|
A-------------------------------------------------------------------|

Chorus (sounds right)lISTEN TO SONG TO GET CORRECT TIMING
[ Tab from: http://www.guitartabs.cc/tabs/k/korn/here_to_stay_tab_ver_4.html ]
D-------------------------------------------------------------------|
A-------------------------------------------------------------------|
F-------------------------------------------------------------------|
C-------------------------------------------------------------------|
G---2--3--2--7--2--3--2--6------------------------------------------|
D---2--3--2--7--2--3--2--6------------------------------------------|
A---0--1--0--5--0--1--0--4------------------------------------------|

Bridge  (Palm mute all notes)
                  (HERE TO STAY)
D-------------------------------------------------------------------|
A-------------------------------------------------------------------|
F-------------------------------------------------------------------|
C-------------------------------------------------------------------|
G-------------------------------------------------------------------|
D-------------------------------------------------------------------|
A--0-0-2-0-0-0-0-0-------0-0-2--0-0-0-0-----------------------------|

Play Verse agian

Then play 2nd Intro

Ending  With Heavy Distortion Palm Mute All
 Guitar 1
D------------------------------------------------------------------|
A------------------------------------------------------------------|
F------------------------------------------------------------------|
C------------------------------------------------------------------|
G------------------------------------------------------------------|
D---2-2-4-2-2-2-2-2--2-2-4-2-2-2-2---------------------------------|
A---0-0-2-0-0-0-0-0--0-0-2-0-0-0-0---------------------------------|

Guitar 2 With Wah Wah and distortion  Strum fast

D---0-0-0-0-0-0-0-0-0-0-0-0-0-0-0-0-0-0-0-0-0-0-0-0----------------|
A---0-0-0-0-0-0-0-0-0-0-0-0-0-0-0-0-0-0-0-0-0-0-0-0----------------|
F---3-3-3-3-3-3-3-3-3-3-3-4-4-4-4-4-4-4-4-4-4-4-4-4----------------|
C------------------------------------------------------------------|
D------------------------------------------------------------------|
A------------------------------------------------------
Comments