Korn - Here To Stay Chords & Tabs

 

Here To Stay Chords & Tabs

Korn Chords & Tabs

Version: 12 Type: Tab 0 ratings
1 star 2 stars 3 stars 4 stars 5 stars
comments

Here To Stay Tab

   
Here To Stay-Korn
Untouchables

7 String:
A D G C F A D

Intro:

d-----------------------------------------------------------------
a-----------------------------------------------------------------
f-----------------------------------------------------------------
c-----------------------------------------------------------------
g-----------------------------------------------------------------
d-----------------------------------------------------------------
a-0------1------0-3-1-0---0-1--2--0------1------0-3-1-0---0-1--2--

d-----------------------------------------------------------------
a-----------------------------------------------------------------
f-----------------------------------------------------------------
c-----------------------------------------------------------------
g-----------------------------------------------------------------
d-----------------------------------------------------------------
a-0------1------0-3-1-0---0-1--2--0------1------0-3-1-0---0-------

x4
d-----------------------------------------------------------------
a-----------------------------------------------------------------
f-----------------------------------------------------------------
c-----------------------------------------------------------------
g-----------------------------------------------------------------
d-----------------------------------------------------------------
a-0------1------0-3-1-0---0-1--2--0------1------0-3-1-0---0-1--2--

x2
d-----------------------------------------------------------------
a-----------------------------------------------------------------
f-----------------------------------------------------------------
c-----------------------------------------------------------------
g------------------------------2-------------------------------1--
d-0------1------0-3-1-0---0-1-----0------1------0-3-1-0---0-1-----
a-----------------------------------------------------------------

Verses:

d-----------------------------------------------------------------
a-----------------------------------------------------------------
f-----------------------------------------------------------------
c-----------------------------------------------------------------
g------------------------------2-------------------------------1--
d-0------1------0-3-1-0---0-1-----0------1------0-3-1-0---0-1-----
a-----------------------------------------------------------------

Pre Chorus:

d-----------------------------------------------------------------
a-----------------------------------------------------------------
f-----------------------------------------------------------------
c-----------------------------------------------------------------
g-----------------------------------------------------------------
d-3----------------------------3----------------------------------
a-----2--0-2--3-2-0-2---0-2-------2----0-2--3-2-0-2---0-2---------

d-----------------------------------------------------------------
a-----------------------------------------------------------------
f-----------------------------------------------------------------
c-----------------------------------------------------------------
g-----------------------------------------------------------------
d-3----------------------------3----------------------------------
a-----2--0-2--3-2-0-2---0-2-------2----0-2--3-2-0-2---------------

Chorus:

gtr. 3 w/ whammy pedal up one oct and fast chorus

d-----------------------------------------------------------------
a-----------------------------------------------------------------
f-16----14-----19------21--23--16-----14-----14-------------------
c--x-----x------x-------x---x---x------x------x--16---17--14------
g-14----12-----17------19--21--14-----12-----12---x----x---x------
d------------------------------------------------14---15--12------
a-----------------------------------------------------------------

gtr. 1&2
[ Tab from: http://www.guitartabs.cc/tabs/k/korn/here_to_stay_tab_ver_12.html ]
d-----------------------------------------------------------------
a-----------------------------------------------------------------
f-----------------------------------------------------------------
c-----------------------------------------------------------------
g---------------5-------2---------------------5-------2-----------
d-2------5------3---5---0----3--2------5------3---5---0---3-------
a-0------3----------3--------1--0------3----------3-------1-------


Bridge:

gtr. 3

d-----------------------------------------------------------------
a-----------------------------------------------------------------
f-23----------------------24------23-----------------------21-----
c--x-----------------------x-------x------------------------x-----
g-21----------------------22------21-----------------------19-----
d-----------------------------------------------------------------
a-----------------------------------------------------------------

gtr. 1&2

d-----------------------------------------------------------------
a-----------------------------------------------------------------
f-----------------------------------------------------------------
c-----------------------------------------------------------------
g-----------------------------------------------------------------
d-----------------------------------------------------------------
a-0--0--12-0----0-0-0--0-----------0--0--12-0----0-0-0--0---------

gtr. 3

d-----------------------------------------------------------------
a-----------------------------------------------------------------
f-23----------------------24------23-----------------------29-----
c--x-----------------------x-------x------------------------x-----
g-21----------------------22------21-----------------------17-----
d-----------------------------------------------------------------
a-----------------------------------------------------------------

gtr. 1&2

d-----------------------------------------------------------------
a-----------------------------------------------------------------
f-----------------------------------------------------------------
c-----------------------------------------------------------------
g-----------------------------------------------------------------
d-----------------------------------------------------------------
a-0--0--12-0----0-0-0--0-----------0--0--12-0----0-0-0--0---------

...bring it down...

x4
d-----------------------------------------------------------------
a-----------------------------------------------------------------
f-----------------------------------------------------------------
c-----------------------------------------------------------------
g-----------------------------------------------------------------
d-----------------------------------------------------------------
a-0--0--12-0--0--0-0--0--12h13h14h15-0--0--12-0--0-0--0--12h13h14-

Outro: x4

gtr. 3 w/ whammy pedal up 1 oct and fast chorus

d-----------------------------------------------------------------
a-----------------------------------------------------------------
f-16----------------------17--16-------------------17b------------
c--x-----------------------x---x--------------------x-------------
g-14----------------------15--14-------------------15b------------
d-----------------------------------------------------------------
a-----------------------------------------------------------------

gtr. 4

d-----------------------------------------------------------------
a-0------------------------0--------------------------------------
f-4------------------------4b-------------------------------------
c-----------------------------------------------------------------
g-----------------------------------------------------------------
d-----------------------------------------------------------------
a-----------------------------------------------------------------


thatís about all of it
july gtr world version!

trevor jones
timmy91199@yahoo.ca
Comments