Korn - Here To Stay Chords & Tabs

 

Here To Stay Chords & Tabs

Korn Chords & Tabs

Version: 4 Type: Bass Tab 0 ratings
1 star 2 stars 3 stars 4 stars 5 stars
comments

Here To Stay Bass Tab

   
Korn - Here to Stay
CD - The Untouchables
Tabbed by: Quinn

This is tabbed in a 5 string (the way all korn songs should be tabbed)
standard tuning (GDAEB) even though fieldy uses (GDAEA)

slap everything but interlude 1 cause that is wot fieldy dose.


Verses:
G|-----------------------|
D|-----------------------|
A|-----------------------|
E|-----------------------|
B|-0---3---5-5---5-5-5-5-|
[ Tab from: http://www.guitartabs.cc/tabs/k/korn/here_to_stay_btab_ver_4.html ]
Pre-Chorus/Interlude 3:
G|---------------------------|
D|---------------------------|
A|---------------------------|
E|---------------------------|
B|-0-0-3---0-0-0-0---0-0-0-0-|

Chorus:
G|---------------------------|
D|---------------------------|
A|---------------------------|
E|---------------------------|
B|-0-0-3---5-5-5-5---5-5-5-5-|

Interlude 1:
G|---|
D|---|
A|---|  over and over
E|---|
B|-0-|

Interlude 2/Outro:
G|-----------------|
D|-----------------|
A|-----------------|
E|-----------------|
B|-0-0-3---0-0-0-0-|
Comments