Korn - Here To Stay Chords & Tabs

 

Here To Stay Chords & Tabs

Korn Chords & Tabs

Version: 3 Type: Bass Tab 0 ratings
1 star 2 stars 3 stars 4 stars 5 stars
comments

Here To Stay Bass Tab

Korn - Here to Stay

F|------------------|
C|------------------|
G|------------------|    play 8 times
D|------------------|
A|-0-1-2h3h2h3h2/5--|

F|------------------|
C|------------------|
G|------------------|    play 13 times
D|-0-1-2h3h2h3h2/5--|
A|------------------|

F|-------------------------|
C|-------------------------|
G|-------------------------|
D|-3-----------------------|
A|---2-0-2-2-3-2-0-2-2-0-2-|

F|-------------------------|
C|-------------------------|
G|-------------------------|
D|-3-----------------------|
A|---2-2-0-2-0-2-3-2-0-2-2-|

F|-----------------------------|
C|-----------------------------|
G|-----------------------------| play 4 times
D|--------3----0---------------|
A|-0--3-----3---1--------------|

F|------------------|
C|------------------|
G|------------------|    play 8 times
D|-0-1-2h3h2h3h2/5--|
A|------------------|

F|-------------------------|
C|-------------------------|
G|-------------------------|
D|-3-----------------------|
A|---2-0-2-2-3-2-0-2-2-0-2-|

F|-------------------------|
C|-------------------------|
G|-------------------------|
D|-3-----------------------|
A|---2-2-0-2-0-2-3-2-0-2-2-|

F|-----------------------------|
C|-----------------------------|
G|-----------------------------| play 4 times
D|--------3----0---------------|
A|-0--3-----3---1--------------|
[ Tab from: http://www.guitartabs.cc/tabs/k/korn/here_to_stay_btab_ver_3.html ]
    (mute notes)
F|----------------------------|
C|----------------------------|
G|----------------------------| play 8 times
D|----------------------------|
A|-0-0-00-0-000---------------|

F|--------------------------------|
C|--------------------------------|
G|--------------------------------| play 8 times
D|--------------------------------|
A|-0-0-00-0-0h1h2h3---------------|

F|------------------------|
C|------------------------|
G|------------------------|    play 2 times
D|-0-1-2h3h2h3h2/5--------|
A|------------------------|

F|------------------------------|
C|------------------------------|
G|------------------------------|
D|-3----------------------------|
A|---2-0-2-2-3-2-0-2-2-0-2------|

F|------------------------------|
C|------------------------------|
G|------------------------------|
D|-3----------------------------|
A|---2-2-0-2-0-2-3-2-0-2-2------|

F|-------------------------------|
C|-------------------------------|
G|-------------------------------| play 4 times
D|--------3----0-----------------|
A|-0--3-----3---1----------------|

F|------------------------|
C|------------------------|
G|------------------------|    play 8 times
D|------------------------|
A|-0-1-2h3h2h3h2/5--------|

F|--------------------------------|
C|--------------------------------|
G|--------------------------------| play 8 times
D|--------------------------------|
A|-0-0-00-0-0h1h2h3---------------|

This sounds right to me
Comments