Korn - Helmet In The Bush Chords & Tabs

 

Helmet In The Bush Chords & Tabs

Korn Chords & Tabs

Version: 5 Type: Tab 0 ratings
1 star 2 stars 3 stars 4 stars 5 stars
comments

Helmet In The Bush Tab

Typical Korn Tuning:Down to about C.
Arranged For 6 Strings.
I Bet Ya It Sounds Right!!!

intro
e|--------------------------|-------------------------| 
B|--------------------------|-------------------------| 
G|--------------------------|-------------------------| 
D|--------------------------|-------------------------| 
A|-------------9--10--9--8--|-------------8--9--8--7--| 
E|-0--0--0--0---------------|-0--0--0--0--------------| 
   1  2  3  4  1  2  3  4     1  2  3  4  1  2  3  4

e|--------------------------|-------------------------| 
B|--------------------------|-------------------------| 
G|--------------------------|-------------------------| 
D|-------------11-12--12-10-|-------------10-11-10-9--| 
A|-2--2--2--2--9--10--9--8--|-2--2--2--2--8--9--8--7--|
E|-0--0--0--0---------------|-0--0--0--0--------------| 
   1  2  3  4  1  2  3  4     1  2  3  4  1  2  3  4

e|-0------------------------|-------------------------|
B|-0------------------------|-------------------------|
G|-0------------------------|-------------------------|
D|-2------------------------|-------------------------|
A|-2------------------------|-------------------------|
E|-0------------------------|-------------------------|
   1  2  3  4  1  2  3  4 etc...
[ Tab from: http://www.guitartabs.cc/tabs/k/korn/helmet_in_the_bush_tab_ver_5.html ]
Verses:
e|--------------------------|-------------------------|
B|--------------------------|-------------------------|
G|-------------9-/10\9-/10\9|---------9---------------|
D|-------------8-/9-\8-/9-\8|---------8---------------|
A|-------------7-/8-\7-/8-\7|---------7---------------|
E|-0--0--0--0---------------|-0--0--0-----------------|
   1  2  3  4  1  2  3  4     1  2  3  4 etc...

e|--------------------------|-------------------------|
B|--------------------------|-------------------------|
G|-------------6-/7-\6-/7-\6|---------6---------------|
D|-------------5-/6-\5-/6-\5|---------5---------------|
A|-------------4-/5-\4-/5-\4|---------4---------------|
E|-0--0--0--0---------------|-0--0--0-----------------|
   1  2  3  4  1  2  3  4     1  2  3  4 etc...

Pre Chorus/Chorus:
e|--------------------------|-------------5-----------|
B|--------------------------|-------------5-----------|
G|--------------------------|-------------5-----------|
D|-------------5h6p5--------|-------------------------|
A|-7--------7--------7--7B--|----8B-7-----------------|
E|-0--0-----0---------------|-------------------------|
   1  2  3  4  1  2  3  4     1  2  3  4  1  2  3  4

e|--------------------------|-------------------------|
B|--------------------------|-------------------------|
G|--------------------------|-------------------------|
D|--------------------------|-------------------------|
A|-------------4--5--4--3---|-------------4--5--4--3--|
e|-0--0--0--0--2--3--2--1---|-0--0--0--0--2--3--2--1--|

Endings' Pretty Obvious...
Comments