Korn - Hating Chords & Tabs

 

Hating Chords & Tabs

Korn Chords & Tabs

Version: 1 Type: Bass Tab 0 ratings
1 star 2 stars 3 stars 4 stars 5 stars
comments

Hating Bass Tab

   
Band- Korn
Song- Hating
Tuning- ADGCF

Verse
F|----------------|
C|----------------|
G|----------------|
D|-00------33-----|
A|-----11-----4-3-|

Pre - Chorus
F|---------|
C|---------|
G|---------|x3 ----|
D|---------|       |
A|-00-X-XX-|       |
                   |--> x3
F|----------|      |
C|----------|      |
G|----------|x1 ---|
D|----------|
A|-00-XXXXX-|

F|---------|
C|---------|
G|---------|x3
D|---------|
A|-00-X-XX-|

F|-------|
C|-------|
G|-------|x1
D|-------|
A|-4-3-2-|
[ Tab from: http://www.guitartabs.cc/tabs/k/korn/hating_btab.html ]
Chorus
F|---------------------|
C|---------------------|
G|---------------------|
D|-0----3-----0--------|
A|---1----4-----1--0-4-|

After 2nd Chorus
F|------------------------------------------------------------------|
C|------------------------------------------------------------------|
G|------------------------------------------------------------------|
D|------------------------------------------------------------------|
A|-000000-0000000-0000000-00001111-0000000-0000000-0000000-00001111-|

Bridge
F|---------|
C|---------|
G|---------|
D|-0-1-4-3-|
A|---------|

Just Before last Chorus
F|----|
C|----|
G|----|
D|----|
A|-0~-|

Outro: Same as the After 2nd chorus riff
Comments