Korn - Got The Life Chords & Tabs

 

Got The Life Chords & Tabs

Korn Chords & Tabs

Version: 9 Type: Tab 0 ratings
1 star 2 stars 3 stars 4 stars 5 stars
comments

Got The Life Tab

   
GOT THE LIFE
KoRn
From the 1998 Album FOLLOW THE LEADER)

Transcribed by Francesco Capolupo
Words by Jonathan Davis Music by KoRn

 

Gtr I (A D G C F A D) - 'Head'
Gtr II (A D G C F A D) - 'Munky'


   Intro
    Moderately Fast Q=125
   4/4
    Gtr I
    S S S S +S  S E S S S S +S  S E   S  S S S E E  S  S S S  S  S  S  S
||----------------------------------|-------------------------------------|
||--7-7-7-7-(7)-7-7-7-7-7-7-(7)-7-7-|-5--5-5-5-5S8--8--8-8-8S14-14-14-14--|
||o---------------------------------|-------------------------------------|
||--4-4-4-4-(4)-4-4-4-4-4-4-(4)-4-4-|-2--2-2-2-2S5--5--5-5-5S11-11-11-11--|
||o---------------------------------|-------------------------------------|
||----------------------------------|-------------------------------------|
||----------------------------------|-------------------------------------|
|
|   Gtr II
|   Q        E    E Q        Q        Q.         E +Q         Q
||----------------------------------|-------------------------------------|
||----------------------------------|-------------------------------------|
||o---------------------------------|-------------------------8-----------|
||--9--------9----9-9--------9------|-7----------3-(3)--------8-----------|
||o-9--------9----9-9--------9------|-7----------3-(3)--------6-----------|
||--7--------7----7-7--------7------|-5----------1-(1)--------6-----------|
||----------------------------------|-------------------------------------|


   S  S  E S S E S S S S +S  S E
|--------------------------------|
|-14-14-15-7-7-7-7-7-7-7-(7)-7-7-|
|--------------------------------|
|-11-11-12-4-4-4-4-4-4-4-(4)-4-4-|
|--------------------------------|
|--------------------------------|
|--------------------------------|
|
|  Q       E   E Q        Q
|--------------------------------|
|--------------------------------|
|--------------------------------|
|--9-------9---9-9--------9------|
|--9-------9---9-9--------9------|
|--7-------7---7-7--------7------|
|--------------------------------|


  S  S S S E E  E  E  S  S  S  S    S  S  E E E E S S +S  S E
|--------------------------------|-----------------------------|
|-5--5-5-5-5S8--8--8S15-15-15-15-|-15-15-15S7-7-7-7-7-(7)-7-7--|
|--------------------------------|-----------------------------|
|-2--2-2-2-2S5--5--5S12-12-12-12-|-12-12-12S4-4-4-4-4-(4)-4-4--|
|--------------------------------|-----------------------------|
|--------------------------------|-----------------------------|
|--------------------------------|-----------------------------|
|
| Q.         E +Q     Q             Q       E E Q      Q
|--------------------------------|-----------------------------|
|--------------------------------|-----------------------------|
|---------------------8----------|-----------------------------|
|-7----------3-(3)----8----------|--9-------9-9-9------9-------|
|-7----------3-(3)----6----------|--9-------9-9-9------9-------|
|-5----------1-(1)----6----------|--7-------7-7-7------7-------|
|--------------------------------|-----------------------------|


  S  S E E S S  S  S E  S  S  S  S    S  S  E S S E S S S S +S  S E
|----------------------------------|--------------------------------|
|-5--5-5-5S8-8--8--8-8S14-14-14-14-|-14-14-15-7-7-7-7-7-7-7-(7)-7-7-|
|----------------------------------|--------------------------------|
|-2--2-2-2S5-5--5--5-5S11-11-11-11-|-11-11-12-4-4-4-4-4-4-4-(4)-4-4-|
|----------------------------------|--------------------------------|
|----------------------------------|--------------------------------|
|----------------------------------|--------------------------------|
|
| Q.       E   +Q       Q             Q       E   E Q        Q
|----------------------------------|--------------------------------|
|----------------------------------|--------------------------------|
|-----------------------8----------|--------------------------------|
|-7--------3---(3)------8----------|--9-------9---9-9--------9------|
|-7--------3---(3)------6----------|--9-------9---9-9--------9------|
|-5--------1---(1)------6----------|--7-------7---7-7--------7------|
|----------------------------------|--------------------------------|


  E  S S S S E  S  S S S S S S S
|-----------------------------------||
|-5--5-5-5-5S8--8--8-8-8-8-8-8-8----||
|----------------------------------o||
|-2--2-2-2-2S5--5--5-5-5-5-5-5-5----||
|----------------------------------o||
|-----------------------------------||
|-----------------------------------||
|
| Q.         E +Q        Q
|-----------------------------------||
|-----------------------------------||
|------------------------8---------o||
|-7----------3-(3)-------8----------||
|-7----------3-(3)-------6---------o||
|-5----------1-(1)-------6----------||
|-----------------------------------||


  Gtr I
  W          +W           +W           +H.      Q
|----------|------------|------------|-------------|
|-8--------|-(8)--------|-(8)--------|-(8)---------|
|----------|------------|------------|-------------|
|-6--------|-(6)--------|-(6)--------|-(6)---------|
|----------|------------|------------|-------------|
|----------|------------|------------|-------------|
|----------|------------|------------|-------------|
|
| Gtr II
| W          +W           +W           +H.      Q
|----------|------------|------------|-------------|
|----------|------------|------------|-------------|
|-0--------|-(0)--------|-(0)--------|-(0)---------|
|-0--------|-(0)--------|-(0)--------|-(0)---------|
|----------|------------|------------|-------------|
|-6--------|-(6)--------|-(6)--------|-(6)---------|
|----------|------------|------------|-------------|


 Verse
  Gtr I
   Q.    E  +E   E  Q     +H.          Q
|-14----15-(15)-19-14--|-(14)------------------|
|----------------------|-----------------------|
|----------------------|-----------------------|
|----------------------|-----------------------|
|----------------------|-----------------------|
|----------------------|-----------------------|
|----------------------|-----------------------|
|
| Gtr II
|  W                       H     E S S S S S S
|----------------------|-----------3-3-3-3-3-3-|
|----------------------|-----------5-5-5-5-5-5-|
|----------------------|-----------4-4-4-4-4-4-|
|----------------------|-----------------------|
|----------------------|-----------------------|
|----------------------|-----------------------|
|----------------------|-----------------------|


   Q.    E  +Q    Q     +E   E  +H       Q
|-14-------------19--|-(19)-14-(14)----------------|
|-------17-(17)------|-----------------------------|
|--------------------|-----------------------------|
|--------------------|-----------------------------|
|--------------------|-----------------------------|
|--------------------|-----------------------------|
|--------------------|-----------------------------|
|
|  W                     H           E S S S S S S
|--------------------|-----------------3-3-3-3-3-3-|
|--------------------|-----------------5-5-5-5-5-5-|
|--------------------|-----------------4-4-4-4-4-4-|
|--------------------|-----------------------------|
|--------------------|-----------------------------|
|--------------------|-----------------------------|
|--------------------|-----------------------------|


   Q.    E  +E   E  Q     +H.          Q
|-14----15-(15)-19-14--|-(14)------------------|
|----------------------|-----------------------|
|----------------------|-----------------------|
|----------------------|-----------------------|
|----------------------|-----------------------|
|----------------------|-----------------------|
|----------------------|-----------------------|
|
|  W                       H     E S S S S S S
|----------------------|-----------3-3-3-3-3-3-|
|----------------------|-----------5-5-5-5-5-5-|
|----------------------|-----------4-4-4-4-4-4-|
|----------------------|-----------------------|
|----------------------|-----------------------|
|----------------------|-----------------------|
|----------------------|-----------------------|


   Q.    E  +Q    Q     +E   E  +Q
|-14-------------19--|-(19)-14-(14)----|
|-------17-(17)------|-----------------|
|--------------------|-----------------|
|--------------------|-----------------|
|--------------------|-----------------|
|--------------------|-----------------|
|--------------------|-----------------|
|
|  W                     W
|--------------------|-----------------|
|--------------------|-----------------|
|--------------------|-----------------|
|--------------------|-----------------|
|--------------------|-----------------|
|--------------------|-----------------|
|--------------------|-----------------|


   +H.           Q                       W
|-(14)-------------------------------|---------------------------------|
|------------------------------------|---------------------------------|
|------------------------------------|---------------------------------|
|------------------------------------|---------------------------------|
|------------------------------------|---------------------------------|
|------------------------------------|---------------------------------|
|------------------------------------|---------------------------------|
|
|   S  S S S S S S S S S S S S S S S   S S S S S S S S S S S S S S S S
|------------------------------------|---------------------------------|
|------------------------------------|---------------------------------|
|------------------------------------|---------------------------------|
|------------------------------------|---------------------------------|
|------------------------------------|---------------------------------|
|---4--4-x-x-2-2-4-4-x-x-x-x-4-4-x-x-|-4-4-x-x-2-2-4-4-x-x-x-x-4-4-x-x-|
|------------------------------------|---------------------------------|


  W                                 W
|---------------------------------|-----------------------------------|
|---------------------------------|-----------------------------------|
|---------------------------------|-----------------------------------|
|---------------------------------|-----------------------------------|
|---------------------------------|-----------------------------------|
|---------------------------------|-----------------------------------|
|---------------------------------|-----------------------------------|
|
| S S S S S S S S S S S S S S S S   S S S S S S S S S S S S S S S S
|---------------------------------|-----------------------------------|
|---------------------------------|-----------------------------------|
|---------------------------------|-----------------------------------|
|---------------------------------|-----------------------------------|
|---------------------------------|-----------------------------------|
|-4-4-x-x-2-2-4-4-x-x-x-x-4-4-x-x-|-4-4-x-x-2-2-4-4-x-x-x-x-4-4-x-x---|
|---------------------------------|-----------------------------------|


   Q.    E  +E   E  Q     +H.          Q
|-14----15-(15)-19-14--|-(14)------------------|
|----------------------|-----------------------|
|----------------------|-----------------------|
|----------------------|-----------------------|
|----------------------|-----------------------|
|----------------------|-----------------------|
|----------------------|-----------------------|
|
|  W                       H     E S S S S S S
|----------------------|-----------3-3-3-3-3-3-|
|----------------------|-----------5-5-5-5-5-5-|
|----------------------|-----------4-4-4-4-4-4-|
|----------------------|-----------------------|
|----------------------|-----------------------|
|----------------------|-----------------------|
|----------------------|-----------------------|


   Q.    E  +Q    Q     +E   E  +H         Q
|-14-------------19--|-(19)-14-(14)----------------|
|-------17-(17)------|-----------------------------|
|--------------------|-----------------------------|
|--------------------|-----------------------------|
|--------------------|-----------------------------|
|--------------------|-----------------------------|
|--------------------|-----------------------------|
|
|  W                     H           E S S S S S S
|--------------------|-----------------3-3-3-3-3-3-|
|--------------------|-----------------5-5-5-5-5-5-|
|--------------------|-----------------4-4-4-4-4-4-|
|--------------------|-----------------------------|
|--------------------|-----------------------------|
|--------------------|-----------------------------|
|--------------------|-----------------------------|


   Q.    E  +E   E  Q     +H.          Q
|-14----15-(15)-19-14--|-(14)------------------|
|----------------------|-----------------------|
|----------------------|-----------------------|
|----------------------|-----------------------|
|----------------------|-----------------------|
|----------------------|-----------------------|
|----------------------|-----------------------|
|
|  W                       H     E S S S S S S
|----------------------|-----------3-3-3-3-3-3-|
|----------------------|-----------5-5-5-5-5-5-|
|----------------------|-----------4-4-4-4-4-4-|
|----------------------|-----------------------|
|----------------------|-----------------------|
|----------------------|-----------------------|
|----------------------|-----------------------|


   Q.    E  +Q    Q     +E   E  S  S  S  S  +E   E  S  S  S  S
|-14-------------19--|-(19)--------------------------------------|
|-------17-(17)------|------12-12-12-12-12-(12)-12-12-12-12-12---|
|--------------------|-------------------------------------------|
|--------------------|-------------------------------------------|
|--------------------|-------------------------------------------|
|--------------------|-------------------------------------------|
|--------------------|-------------------------------------------|
|
|  W                     W
|--------------------|-------------------------------------------|
|--------------------|-------------------------------------------|
|--------------------|-------------------------------------------|
|--------------------|-------------------------------------------|
|--------------------|-------------------------------------------|
|--------------------|-------------------------------------------|
|--------------------|-------------------------------------------|


   Chorus
    Gtr I
    S S S S +S  S E S S S S +S  S E   S  S S S E E  S  S S S  S  S  S  S
||----------------------------------|------------------------------------|
||--7-7-7-7-(7)-7-7-7-7-7-7-(7)-7-7-|-5--5-5-5-5S8--8--8-8-8S14-14-14-14-|
||o---------------------------------|------------------------------------|
||--4-4-4-4-(4)-4-4-4-4-4-4-(4)-4-4-|-2--2-2-2-2S5--5--5-5-5S11-11-11-11-|
||o---------------------------------|------------------------------------|
||----------------------------------|------------------------------------|
||----------------------------------|------------------------------------|
|
|   Gtr II
|   Q        E    E Q        Q        Q.         E +Q         Q
||----------------------------------|------------------------------------|
||----------------------------------|------------------------------------|
||o---------------------------------|-------------------------8----------|
||--9--------9----9-9--------9------|-7----------3-(3)--------8----------|
||o-9--------9----9-9--------9------|-7----------3-(3)--------6----------|
||--7--------7----7-7--------7------|-5----------1-(1)--------6----------|
||----------------------------------|------------------------------------|


   S  S  E S S E S S S S +S  S E
|--------------------------------|
|-14-14-15-7-7-7-7-7-7-7-(7)-7-7-|
|--------------------------------|
|-11-11-12-4-4-4-4-4-4-4-(4)-4-4-|
|--------------------------------|
|--------------------------------|
|--------------------------------|
|
|  Q       E   E Q        Q
|--------------------------------|
|--------------------------------|
|--------------------------------|
|--9-------9---9-9--------9------|
|--9-------9---9-9--------9------|
|--7-------7---7-7--------7------|
|--------------------------------|


  S  S S S E E  E  E  S  S  S  S    S  S  E E E E S S +S  S E
|--------------------------------|-----------------------------|
|-5--5-5-5-5S8--8--8S15-15-15-15-|-15-15-15S7-7-7-7-7-(7)-7-7--|
|--------------------------------|-----------------------------|
|-2--2-2-2-2S5--5--5S12-12-12-12-|-12-12-12S4-4-4-4-4-(4)-4-4--|
|--------------------------------|-----------------------------|
|--------------------------------|-----------------------------|
|--------------------------------|-----------------------------|
|
| Q.         E +Q     Q             Q       E E Q      Q
|--------------------------------|-----------------------------|
|--------------------------------|-----------------------------|
|---------------------8----------|-----------------------------|
|-7----------3-(3)----8----------|--9-------9-9-9------9-------|
|-7----------3-(3)----6----------|--9-------9-9-9------9-------|
|-5----------1-(1)----6----------|--7-------7-7-7------7-------|
|--------------------------------|-----------------------------|


  S  S E E S S  S  S E  S  S  S  S    S  S  E S S E S S S S +S  S E
|----------------------------------|--------------------------------|
|-5--5-5-5S8-8--8--8-8S14-14-14-14-|-14-14-15-7-7-7-7-7-7-7-(7)-7-7-|
|----------------------------------|--------------------------------|
|-2--2-2-2S5-5--5--5-5S11-11-11-11-|-11-11-12-4-4-4-4-4-4-4-(4)-4-4-|
|----------------------------------|--------------------------------|
|----------------------------------|--------------------------------|
|----------------------------------|--------------------------------|
|
| Q.       E   +Q       Q             Q       E   E Q        Q
|----------------------------------|--------------------------------|
|----------------------------------|--------------------------------|
|-----------------------8----------|--------------------------------|
|-7--------3---(3)------8----------|--9-------9---9-9--------9------|
|-7--------3---(3)------6----------|--9-------9---9-9--------9------|
|-5--------1---(1)------6----------|--7-------7---7-7--------7------|
|----------------------------------|--------------------------------|


  E  S S S S E  S  S S S S S S S
|-----------------------------------||
|-5--5-5-5-5S8--8--8-8-8-8-8-8-8----||
|----------------------------------o||
|-2--2-2-2-2S5--5--5-5-5-5-5-5-5----||
|----------------------------------o||
|-----------------------------------||
|-----------------------------------||
|
| Q.         E +Q        Q
|-----------------------------------||
|-----------------------------------||
|------------------------8---------o||
|-7----------3-(3)-------8----------||
|-7----------3-(3)-------6---------o||
|-5----------1-(1)-------6----------||
|-----------------------------------||


 Interlude
  Gtr I
  W          +W                +W
|----------|-----------------|------------|
|-8--------|-(8)-------------|-(8)--------|
|----------|-----------------|------------|
|-6--------|-(6)-------------|-(6)--------|
|----------|-----------------|------------|
|----------|-----------------|------------|
|----------|-----------------|------------|
|
| Gtr II
| W           Q.   E +Q   Q     W
|----------|-----------------|------------|
|----------|-----------------|------------|
|----------|--------------8--|------------|
|-9--------|--7----3-(3)--8--|--9---------|
|-9--------|--7----3-(3)--6--|--9---------|
|-7--------|--5----1-(1)--6--|--7---------|
|----------|-----------------|------------|

[ Tab from: http://www.guitartabs.cc/tabs/k/korn/got_the_life_tab_ver_9.html ]
  +W                +W           +W
|-----------------|------------|------------------|
|-(8)-------------|-(8)--------|-(8)--------------|
|-----------------|------------|------------------|
|-(6)-------------|-(6)--------|-(6)--------------|
|-----------------|------------|------------------|
|-----------------|------------|------------------|
|-----------------|------------|------------------|
|
|  Q.   E +Q   Q     W            Q.   E +Q   Q
|-----------------|------------|------------------|
|-----------------|------------|------------------|
|--------------8--|------------|--------------8---|
|--7----3-(3)--8--|--9---------|--7----3-(3)--8---|
|--7----3-(3)--6--|--9---------|--7----3-(3)--6---|
|--5----1-(1)--6--|--7---------|--5----1-(1)--6---|
|-----------------|------------|------------------|


   W     W            +W
|------|----------||-------------|
|------|----------||-------------|
|-(0)--|-0--------||o-(0)--------|
|------|----------||-------------|
|------|----------||o------------|
|------|----------||-------------|
|------|----------||-------------|
|
|  >
|  W                   W
|------|----------||-------------|
|------|----------||-------------|
|------|----------||o--8---------|
|--9---|----------||-------------|
|--9---|----------||o------------|
|--7---|----------||-------------|
|------|----------||-------------|


  +W                  +W           +W
|-------------------|------------|--------------||
|-------------------|------------|--------------||
|-(0)---------------|-(0)--------|-(0)---------o||
|-------------------|------------|--------------||
|-------------------|------------|-------------o||
|-------------------|------------|--------------||
|-------------------|------------|--------------||
|
|  Q.   E +E   Q.      W            Q.   E +H
|-------------------|------------|--------------||
|--8----------10----|------------|--8-----------||
|-------9-(9)-------|--8---------|-------9-(9)-o||
|-------------------|------------|--------------||
|-------------------|------------|-------------o||
|-------------------|------------|--------------||
|-------------------|------------|--------------||


    H                  E  +E      +E  E   H                  E  +E     Q    7x
||--------------------13-(13)b15r(13)---|-------------------13-(13)b15------||
||--------------------------------------|-----------------------------------||
||o-------------------------------------|----------------------------------o||
||--------------------------------------|-----------------------------------||
||o-------------------------------------|----------------------------------o||
||--------------------------------------|-----------------------------------||
||--------------------------------------|-----------------------------------||
|
|   E  E  +E      +E   Q           E  E   E  E  +E      +E   Q         E E  7x
||--------------------------------------|-----------------------------------||
||----12-(12)b13r(12)-------------------|---12-(12)b13r(12)-----------------||
||o-----------------------------------0-|--------------------------------0-o||
||------------------------------------3-|--------------------------------3--||
||o-------------------------------------|----------------------------------o||
||--------------------------------------|-----------------------------------||
||--------------------------------------|-----------------------------------||


  H                  E  +E      +E  E   W
|-------------------13-(13)b15r(13)---|------------------------------|
|-------------------------------------|------------------------------|
|-------------------------------------|------------------------------|
|-------------------------------------|------------------------------|
|-------------------------------------|------------------------------|
|-------------------------------------|------------------------------|
|-------------------------------------|------------------------------|
|
| E  E  +E      +E   Q           E  E   E  E  +E      +E   +E    Q.
|-------------------------------------|------------------------------|
|---12-(12)b13r(12)-------------------|---12-(12)b13r(12)-(12)-(12)--|
|-----------------------------------0-|------------------------------|
|-----------------------------------3-|------------------------------|
|-------------------------------------|------------------------------|
|-------------------------------------|------------------------------|
|-------------------------------------|------------------------------|


 Chorus
  Gtr I
  S S S S +S  S E S S S S +S  S E   S  S S S E E  S  S S S  S  S  S  S
|---------------------------------|------------------------------------|
|-7-7-7-7-(7)-7-7-7-7-7-7-(7)-7-7-|-5--5-5-5-5S8--8--8-8-8S14-14-14-14-|
|---------------------------------|------------------------------------|
|-4-4-4-4-(4)-4-4-4-4-4-4-(4)-4-4-|-2--2-2-2-2S5--5--5-5-5S11-11-11-11-|
|---------------------------------|------------------------------------|
|---------------------------------|------------------------------------|
|---------------------------------|------------------------------------|
|
| Gtr II
| Q        E    E Q        Q        Q.         E +Q         Q
|---------------------------------|------------------------------------|
|---------------------------------|------------------------------------|
|---------------------------------|-------------------------8----------|
|-9--------9----9-9--------9------|-7----------3-(3)--------8----------|
|-9--------9----9-9--------9------|-7----------3-(3)--------6----------|
|-7--------7----7-7--------7------|-5----------1-(1)--------6----------|
|---------------------------------|------------------------------------|


   S  S  E S S E S S S S +S  S E
|--------------------------------|
|-14-14-15-7-7-7-7-7-7-7-(7)-7-7-|
|--------------------------------|
|-11-11-12-4-4-4-4-4-4-4-(4)-4-4-|
|--------------------------------|
|--------------------------------|
|--------------------------------|
|
|  Q       E   E Q        Q
|--------------------------------|
|--------------------------------|
|--------------------------------|
|--9-------9---9-9--------9------|
|--9-------9---9-9--------9------|
|--7-------7---7-7--------7------|
|--------------------------------|


  S  S S S E E  E  E  S  S  S  S    S  S  E E E E S S +S  S E
|--------------------------------|-----------------------------|
|-5--5-5-5-5S8--8--8S15-15-15-15-|-15-15-15S7-7-7-7-7-(7)-7-7--|
|--------------------------------|-----------------------------|
|-2--2-2-2-2S5--5--5S12-12-12-12-|-12-12-12S4-4-4-4-4-(4)-4-4--|
|--------------------------------|-----------------------------|
|--------------------------------|-----------------------------|
|--------------------------------|-----------------------------|
|
| Q.         E +Q     Q             Q       E E Q      Q
|--------------------------------|-----------------------------|
|--------------------------------|-----------------------------|
|---------------------8----------|-----------------------------|
|-7----------3-(3)----8----------|--9-------9-9-9------9-------|
|-7----------3-(3)----6----------|--9-------9-9-9------9-------|
|-5----------1-(1)----6----------|--7-------7-7-7------7-------|
|--------------------------------|-----------------------------|


  S  S E E S S  S  S E  S  S  S  S
|----------------------------------|
|-5--5-5-5S8-8--8--8-8S14-14-14-14-|
|----------------------------------|
|-2--2-2-2S5-5--5--5-5S11-11-11-11-|
|----------------------------------|
|----------------------------------|
|----------------------------------|
|
| Q.       E   +Q       Q
|----------------------------------|
|----------------------------------|
|-----------------------8----------|
|-7--------3---(3)------8----------|
|-7--------3---(3)------6----------|
|-5--------1---(1)------6----------|
|----------------------------------|


   S  S  E S S E S S S S +S  S E   E  S S S S E  S  S S S S S S S
|--------------------------------|----------------------------------|
|-14-14-15-7-7-7-7-7-7-7-(7)-7-7-|-5--5-5-5-5S8--8--8-8-8-8-8-8-8---|
|--------------------------------|----------------------------------|
|-11-11-12-4-4-4-4-4-4-4-(4)-4-4-|-2--2-2-2-2S5--5--5-5-5-5-5-5-5---|
|--------------------------------|----------------------------------|
|--------------------------------|----------------------------------|
|--------------------------------|----------------------------------|
|
|  Q       E   E Q        Q        Q.         E +Q        Q
|--------------------------------|----------------------------------|
|--------------------------------|----------------------------------|
|--------------------------------|------------------------8---------|
|--9-------9---9-9--------9------|-7----------3-(3)-------8---------|
|--9-------9---9-9--------9------|-7----------3-(3)-------6---------|
|--7-------7---7-7--------7------|-5----------1-(1)-------6---------|
|--------------------------------|----------------------------------|


  S S S S +S  S E S S S S +S  S E   S  S S S E E  S  S S S  S  S  S  S
|---------------------------------|------------------------------------|
|-7-7-7-7-(7)-7-7-7-7-7-7-(7)-7-7-|-5--5-5-5-5S8--8--8-8-8S14-14-14-14-|
|---------------------------------|------------------------------------|
|-4-4-4-4-(4)-4-4-4-4-4-4-(4)-4-4-|-2--2-2-2-2S5--5--5-5-5S11-11-11-11-|
|---------------------------------|------------------------------------|
|---------------------------------|------------------------------------|
|---------------------------------|------------------------------------|
|
| Q        E    E Q        Q        Q.         E +Q         Q
|---------------------------------|------------------------------------|
|---------------------------------|------------------------------------|
|---------------------------------|-------------------------8----------|
|-9--------9----9-9--------9------|-7----------3-(3)--------8----------|
|-9--------9----9-9--------9------|-7----------3-(3)--------6----------|
|-7--------7----7-7--------7------|-5----------1-(1)--------6----------|
|---------------------------------|------------------------------------|


   S  S  E S S E S S S S +S  S E
|--------------------------------|
|-14-14-15-7-7-7-7-7-7-7-(7)-7-7-|
|--------------------------------|
|-11-11-12-4-4-4-4-4-4-4-(4)-4-4-|
|--------------------------------|
|--------------------------------|
|--------------------------------|
|
|  Q       E   E Q        Q
|--------------------------------|
|--------------------------------|
|--------------------------------|
|--9-------9---9-9--------9------|
|--9-------9---9-9--------9------|
|--7-------7---7-7--------7------|
|--------------------------------|


  S  S S S E E  E  E  S  S  S  S    S  S  E E E E S S +S  S E
|--------------------------------|-----------------------------|
|-5--5-5-5-5S8--8--8S15-15-15-15-|-15-15-15S7-7-7-7-7-(7)-7-7--|
|--------------------------------|-----------------------------|
|-2--2-2-2-2S5--5--5S12-12-12-12-|-12-12-12S4-4-4-4-4-(4)-4-4--|
|--------------------------------|-----------------------------|
|--------------------------------|-----------------------------|
|--------------------------------|-----------------------------|
|
| Q.         E +Q     Q             Q       E E Q      Q
|--------------------------------|-----------------------------|
|--------------------------------|-----------------------------|
|---------------------8----------|-----------------------------|
|-7----------3-(3)----8----------|--9-------9-9-9------9-------|
|-7----------3-(3)----6----------|--9-------9-9-9------9-------|
|-5----------1-(1)----6----------|--7-------7-7-7------7-------|
|--------------------------------|-----------------------------|


  S  S E E S S  S  S E  S  S  S  S
|----------------------------------|
|-5--5-5-5S8-8--8--8-8S14-14-14-14-|
|----------------------------------|
|-2--2-2-2S5-5--5--5-5S11-11-11-11-|
|----------------------------------|
|----------------------------------|
|----------------------------------|
|
| Q.       E   +Q       Q
|----------------------------------|
|----------------------------------|
|-----------------------8----------|
|-7--------3---(3)------8----------|
|-7--------3---(3)------6----------|
|-5--------1---(1)------6----------|
|----------------------------------|


   E  E E S S E S S +E   S  S    E   E E S S  E  S S +E   S  S
|-----------------------------|--------------------------------|
|-14-15-7-7-7-7-7-7-(7)S14-14-|-14--15-7-7-7--7--7-7-(7)S14-14-|
|-----------------------------|--------------------------------|
|-11-12-4-4-4-4-4-4-(4)S11-11-|-11--12-4-4-4--4--4-4-(4)S11-11-|
|-----------------------------|--------------------------------|
|-----------------------------|--------------------------------|
|-----------------------------|--------------------------------|
|
|  Q    E E   Q      Q           Q.      E   +Q       Q
|-----------------------------|--------------------------------|
|-----------------------------|--------------------------------|
|-----------------------------|-----------------------8--------|
|--9----9-9---9------9--------|--7-------3---(3)------8--------|
|--9----9-9---9------9--------|--7-------3---(3)------6--------|
|--7----7-7---7------7--------|--5-------1---(1)------6--------|
|-----------------------------|--------------------------------|


     S  S  E  S  S  S  S  E S S E  S  S
||--------------------------------------|
||--14-14-15-15-15-15-15-15S7-7-7-14-14-|
||o-------------------------------------|
||--11-11-12-12-12-12-12-12S4-4-4-11-11-|
||o-------------------------------------|
||--------------------------------------|
||--------------------------------------|
|
|    Q        E     E     Q     Q
||--------------------------------------|
||--------------------------------------|
||o-------------------------------------|
||---9--------9-----9-----9-----9-------|
||o--9--------9-----9-----9-----9-------|
||---7--------7-----7-----7-----7-------|
||--------------------------------------|


   S   S  E  S  S  S  S  E  S S E  S  S  4x
|----------------------------------------||
|-14--14-15-15-15-15-15-15S=7-7-7-14-14--||
|---------------------------------------o||
|-11--11-12-12-12-12-12-12S=4-4-4-11-11--||
|---------------------------------------o||
|----------------------------------------||
|----------------------------------------||
|
|  Q.              E    +Q      Q        4x
|----------------------------------------||
|----------------------------------------||
|-------------------------------8-------o||
|--7---------------3----(3)-----8--------||
|--7---------------3----(3)-----6-------o||
|--5---------------1----(1)-----6--------||
|----------------------------------------||


 Outro
  Free Time Q=125
   +E   S  +S  E E S S Q   E    +E   S  +S  E E S S Q   E
|----------------------------:----------------------------:
|-(14)-15-(15)S7-7-7-7-7S=14-:-(14)-15-(15)S7-7-7-7-7S=14-:
|----------------------------:----------------------------:
|-(11)-12-(12)S4-4-4-4-4S=11-:-(11)-12-(12)S4-4-4-4-4S=11-:
|----------------------------:----------------------------:
|----------------------------:----------------------------:
|----------------------------:----------------------------:
|
|   W                           +W
|----------------------------:----------------------------:
|----------------------------:----------------------------:
|----------------------------:----------------------------:
|---9------------------------:--(9)-----------------------:
|---9------------------------:--(9)-----------------------:
|---7------------------------:--(7)-----------------------:
|----------------------------:----------------------------:


   +E   S  +S  E E S S Q   E    +E   S  +S  E E S S Q   E
|----------------------------:-----------------------------|
|-(14)-15-(15)S7-7-7-7-7S=14-:-(14)-15-(15)S7-7-7-7-7S=14--|
|----------------------------:-----------------------------|
|-(11)-12-(12)S4-4-4-4-4S=11-:-(11)-12-(12)S4-4-4-4-4S=11--|
|----------------------------:-----------------------------|
|----------------------------:-----------------------------|
|----------------------------:-----------------------------|
|
|  +W                           +W
|----------------------------:-----------------------------|
|----------------------------:-----------------------------|
|----------------------------:-----------------------------|
|--(9)-----------------------:--(9)------------------------|
|--(9)-----------------------:--(9)------------------------|
|--(7)-----------------------:--(7)------------------------|
|----------------------------:-----------------------------|


   +E   S  +S  E E S S Q   E    +E   S  +S  E E S S Q   E
|----------------------------|----------------------------|
|-(14)-15-(15)S7-7-7-7-7S=14-|-(14)-15-(15)S7-7-7-7-7S=14-|
|----------------------------|----------------------------|
|-(11)-12-(12)S4-4-4-4-4S=11-|-(11)-12-(12)S4-4-4-4-4S=11-|
|----------------------------|----------------------------|
|----------------------------|----------------------------|
|----------------------------|----------------------------|
|
|  +W                           +W
|----------------------------|----------------------------|
|----------------------------|----------------------------|
|----------------------------|----------------------------|
|--(9)-----------------------|--(9)-----------------------|
|--(9)-----------------------|--(9)-----------------------|
|--(7)-----------------------|--(7)-----------------------|
|----------------------------|----------------------------|


   +E   S  +S  E E +H       +E  E +H.
|-------------------------:--------------|
|-(14)-15-(15)S7-7-(7)----:-(7)S8-(8)----|
|-------------------------:--------------|
|-(11)-12-(12)S4-4-(4)----:-(4)S5-(5)----|
|-------------------------:--------------|
|-------------------------:--------------|
|-------------------------:--------------|
|
|   W                        W
|-------------------------:--------------|
|-------------------------:--------------|
|-------------------------:--------------|
|-------------------------:--------------|
|-------------------------:--------------|
|-------------------------:--------------|
|-------------------------:--------------|




--------------------------------------------------------------------------------


Duration Legend
---------------
W - whole; H - half; Q - quarter; E - 8th; S - 16th; T - 32nd; X - 64th; a - acciaccatura
+ - note tied to previous; . - note dotted; .. - note double dotted
Uncapitalized letters represent notes that are staccato (1/2 duration)
Irregular groupings are notated above the duration line
Duration letters will always appear directly above the note/fret number it represents the
duration for.  Duration letters with no fret number below them represent rests.  Multi-
bar rests are notated in the form Wxn, where n is the number of bars to rest for.  Low
melody durations appear below the staff

Tablature Legend
----------------
 h   - hammer-on
 p   - pull-off
 b   - bend
 pb  - pre-bend
 r   - bend release (if no number after the r, then release immediately)
 /\  - slide into or out of (from/to "nowhere")
 s   - legato slide
 S   - shift slide
 - natural harmonic
[n]  - artificial harmonic
n(n) - tapped harmonic
 ~   - vibrato
 tr  - trill
 T   - tap
 TP  - trem. picking
 PM  - palm muting
\n/  - tremolo bar dip; n = amount to dip
 \n  - tremolo bar down
 n/  - tremolo bar up
/n\  - tremolo bar inverted dip
 =   - hold bend; also acts as connecting device for hammers/pulls
 <> - volume swell (louder/softer)
 x   - on rhythm slash represents muted slash
 o   - on rhythm slash represents single note slash

Misc Legend
-----------
 |  - bar
||  - double bar
||o - repeat start
o|| - repeat end
*|  - double bar (ending)
 :  - bar (freetime)
 $  - Segno
 &  - Coda
Tempo markers -  = BPM(8/16=s8/s16), where s8 = swing 8ths, s16 = swing 16ths
Comments