Korn - Got The Life Chords & Tabs

 

Got The Life Chords & Tabs

Korn Chords & Tabs

Version: 8 Type: Tab 0 ratings
1 star 2 stars 3 stars 4 stars 5 stars
comments

Got The Life Tab

   
Fig1 (Intro/Chorus riff)
|-------------------------------------|
|------------14--14-15----------------|
|-11--9--12-------------11--9--12--7--|
|------------11--11-12----------------|
|-9---7--10-------------9---7--10--5--|
|-------------------------------------|

Fig2 (Verse riff)
|-14-15-14--14--|-14-12-19-|
|---------------|----------|
|---------------|----------|
|---------------|----------|
|---------------|----------|
|---------------|----------|
[ Tab from: http://www.guitartabs.cc/tabs/k/korn/got_the_life_tab_ver_8.html ]
Fig4 (Outro riff)
|--------------|
|-14--14-15-15-|
|--------------|
|-11--11-12-12-|
|--------------|
|--------------|

Fig5 (Outro riff)
|----------------|
|-14--14-15------|
|-----------11---|
|-11--11-12------|
|-----------9----|
|----------------|

Fig6(Chorus riff)
  A    G    Eb   D
|----------------------|
|----------------------|
|----------------------|
|-9-9--7-7--3-3--2-2---|
|-9-9--7-7--3-3--2-2---|
|-7-7--5-5--1-1--0-0---|


Fig7 (Verse Intelude Riff
  B     A  B
|--------------|
|--------------|
|--------------|
|-11-11-9--11--|
|-11-11-9--11--|
|-9--9--7--9---|
Comments