Korn - Got The Life Chords & Tabs

 

Got The Life Chords & Tabs

Korn Chords & Tabs

Version: 6 Type: Tab 0 ratings
1 star 2 stars 3 stars 4 stars 5 stars
comments

Got The Life Tab

   
Korn -- Got the life 
  Follow The Leader Album 
  standard tuning

(*): volume-up-down
 /: Let ring  
[ Tab from: http://www.guitartabs.cc/tabs/k/korn/got_the_life_tab_ver_6.html ]
  E |---------------------------------------|
  B |---------------------------------------|
  G |---------------------------------------|
  D |-------5--11--11--12-------------------|                                
  A |--9-7--5--11--11--12--9--7--10---------|
  E |--9-7-----------------9--7--10---------|     \           (A)
                                                   \ 2X 
  E |-------------------------------------------|  /
  B |-------------------------------------------| /
  G |-------------------------------------------|
  D |-------5-11--11--12-----------11-11--------| <<<--Start with this one
  A |-9-7--5--11--11--12--9--7--10-11-11 9-7-10-|
  E |-9-7-----------------9--7--10-------9-7-10-|
 
  E |-12-13-17-12-8-12-10-17-10------------|
  B |-------------8------------------------|
  G |--------------------------------------|
  D |--------------------------------------| 2X                (B)
  A |--------------------------------------|
  E |--------------------------------------|
 
      Em   Em  Em G
  E |-------------3----|
  B |------------------|                    
  G |------------------|                   (B->live Version)
  D |-2--0--2-0-2------|
  A |-2--0--2-0-2-2----|
  E |----0----0---3----|
   
  E |6(*)-6/--9/-7/-12/-6/-9/-6/-12/--9/-7/|
  B |--------------------------------------|                      (Special effects)
  G |--------------------------------------|                   (C)
  D |--------------------------------------|
  A |--------------------------------------|
  E |--------------------------------------|


  E |-----------14-15-14-19----------------|
  B |--12-13-12----------------------------|
  G |--------------------------------------|                   (D)
  D |--------------------------------------|                      
  A |--------------------------------------|
  E |--------------------------------------|

Order:
 A
 B
(B->live version)
 B
 A
 C
 D
 A 
 Tabbed By: Chris Henny
Comments