Korn - Got The Life Chords & Tabs

 

Got The Life Chords & Tabs

Korn Chords & Tabs

Version: 3 Type: Bass Tab 0 ratings
1 star 2 stars 3 stars 4 stars 5 stars
comments

Got The Life Bass Tab

Korn

"Got The Life"

Follow The Leader

Tuning: Standard
______________________________________________________________
[ Tab from: http://www.guitartabs.cc/tabs/k/korn/got_the_life_btab_ver_3.html ]
(Intro/Chorus):
G------------------4-5-----------------|
D----------------9-----7--777----------|
A-7-7777-555-888--------------555-8888-|
E--------------------------------------|


(Verse): still working on
Will give credit if someone finds out it is


(Intrelude):
G---------------------------|
D---------------------------|
A-0~---7~---5~---8~---0~----|
E---------------------------|
Comments