Korn - Good God Chords & Tabs

 

Good God Chords & Tabs

Korn Chords & Tabs

Version: 5 Type: Tab 0 ratings
1 star 2 stars 3 stars 4 stars 5 stars
comments

Good God Tab

   
Song: Good God
Album: Life Is Peachy (Track 6)
Tuning: CGCFAD
Tabbed by: Rob Walden

Riff A
-----8---8----------8---8----------8---8----------7---8
-------------------------------------------------------
-------------------------------------------------------
-1h0---0----1h0-1h0---0---1h0-1h0---0----1h0-1h0---0---
-1h0---0----1h0-1h0---0---1h0-1h0---0----1h0-1h0---0---
-1h0---0----1h0-1h0---0---1h0-1h0---0----1h0-1h0---0---

Riff B
-----15-14----14-10
-------------------
-------------------
-1h0------1h0------
-1h0------1h0------
-1h0------1h0------
[ Tab from: http://www.guitartabs.cc/tabs/k/korn/good_god_tab_ver_5.html ]
Chorus A  "In the sea of life..."   
------------   
------------
-8----------
-x---7--5--0
-6---7--5--0
-----7--5--0     
(Hold chords)

Chorus B
----------
----------
----------
-9-9-7-6-5
-9-9-7-6-5
-9-9-7-6-5

Bridge "WHY DONT YOU GET THE FUCK OUT OF MY FACE, NOW!"
--------------------
--------------------
--------------------
-1p0-0-0-1p0-1p0-0-0
-1p0-0-0-1p0-1p0-0-0
-1p0-0-0-1p0-1p0-0-0

Song Order
Riff A: x2
Riff B: x6
Riff A: x1
Chorus A: x4
Riff B; x6
Riff A: x1
Chorus A: x4
Chorus B: x4
Bridge: x4
Chorus A: x4
Chorus B: x3

thats it, IM me at kornfellow91 for comments on AIM. thanks ROB
Comments