Korn - Freak On A Leash Chords & Tabs

 

Freak On A Leash Chords & Tabs

Korn Chords & Tabs

Version: 8 Type: Tab 0 ratings
1 star 2 stars 3 stars 4 stars 5 stars
comments

Freak On A Leash Tab

   
Artist: KoRn
Title: Freak On A Leash
Album: Follow The Leader

This is one of their best yet, not only is it a class tune, it also gets
played on MTV a fair bit, so there will be more KoRn fans in the future.

Tuning: *This is my six-string masterpiece* There are millions of KoRn tabs
for seven-stringers, and the six-string tabs are shit. I did this
all myself so its nye on perfect.
Tune your 6 String to a dropped D, (D a D G B E)

And now for the tab!!!  

Intro & Verses

Guitar 1 plays this (Munky)  Then Guitar 2 (Head) plays
                                                                                
E-------17------------------|-------15--22----------------|
B---15------16--------------|---16-----------------------o|
G---------------------------|-----------------------------|
D---------------------------|-----------------------------|
A---------------------------|----------------------------o|
D---------------------------|-----------------------------|
                                                                            
Pre-Chorus

"Sometimes I cannot take this place..."

                                                                                
E-------------|--------------|------------|
B-------------|--------------|------------|
G---11-12-11--|--11--12--11--|--8--12--11-|
D-------------|--------------|------------|
A---9-/10\9---|--9---10--9---|--6--10--9--|
D---0---------|--0---0---0---|--0--0---0--|
                                                                            

Chorus

"Something takes a part of me..."
[ Tab from: http://www.guitartabs.cc/tabs/k/korn/freak_on_a_leash_tab_ver_8.html ]
                                                                                
E------------------------------------------|
B------------------------------------------|
G------------------------------------------|
D---7--7--7--7--7--7--2--2--2--3--1--1--1--|
A---7--7--7--7--7--7--2--2--2--3--1--1--1--|
D---7--7--7--7--7--7--2--2--2--3--1--1--1--|
                                                                            


Bridge

"Boom ma na..."

The guitar doesn't play for the first bit, try pick scraping, then play

                                                                                
E---------8--8--8--------8--7--|
B------------------------------|
G------------------------------|
D------------------------------|
A------------------------------|
D---9--9-----------9--9--------|
                                                                            

"Go!"

                                                                                
E------------------------|
B------------------------|
G------------------------|
D------------------------|
A---2-----3-----4-----5--|
D---4-----5-----6-----7--|
                                                                            


Back to chorus

On the last chorus there is a whammy riff, if you don't have a whammy pedal
slide up an octave like it says on the tab

      WU    WD                                                                   
E---5-/-(17)-\-6--3--|     WU= Whammy up
B--------------------|     WD= Whammy down
G--------------------|
D--------------------|
A--------------------|
D--------------------|
                                                                            

Then at the end of the last chorus slide the A chord (barre on 7th)
up to the 19th.

For any comments, queries or more great tabs visit
         * www.pop-music-sucks.co.uk *
Comments